Higher Praise - Guitar Chords, Lyrics  GuitarTabs -  Praise nad Worship Music And Christian Songs

Higher Praise - Guitar Tabs, Guitar Chords, Lyrics
   Lyrics, Chords And Tabs
   Popular Lyrics Chords Tab
   Power Point Lyrics
   Praise & Worship Music
   Christian Music Videos
   15900 Videos & Audios
   Midi Files
   Worship Questions
   Christmas Chords, Lyrics
   Lyrics, Chords Tabs Rated

Sermon Outlines And Audio Sermons
   9344 Sermon Outlines
   N.T. Sermon Outlines
   O.T. Sermon Outlines
   Special Guest Outlines
   10.000 Illustrations
   Sunday School Studies
   Bible College Studies
   Greatest Preachers
   Bible Research Tools
Audio Sermons
   2895 Audio Sermons
   85 Sermon Videos
   291 Special Guests Serm

   Complete Audio Bible
Higher Praise Sunday School Teaching
   Children's NT Studies
   Children's OT Studies

   98 Children's Midis
   Gospel For Kids Movie
   Children's JESUS Film
Higher Praise Christian Video Library ,Videos
   Christian Television
   TBN TV Live
   15,000 Videos - HP Tube
   712 Youth Music Vids
  Christian Video Library
   Praise Videos #1 & #2
   85 Sermon Videos
   Prophecy Film -Videos
   JESUS Film -Video
   Childrens JESUS Film
   Gospel For Kids Movie
   Passion Of The Christ
   Noah, Sodom, Sinai, Ark
   Tsunami Videos Photos
News And Information
   Testimonies
   Submit Lyrics, Tabs, Serm
   10.000 Illustrations
   Bible College Course
   Clipart & Web Graphics
   Greatest Preachers
   Complete Talking Bible
   Christian Chat Rooms
   Links Church Resource
   HP Statement Of Faith
Download Clipart
   Audio Sermons
   Clipart & Web Graphics
   Church Administration
   Bible Study Software
   Screen Savers Software
   Verse A Day Software
   Educational Games
   Trade Center Photos

   Soft. Search Engine
Higher Praise News
   Current News
    Archived News
   Submit News
   Newsletter   Higher Praise Interact Prayer
   Prayer For All Needs
   
Submit Lyrics, Sermons
   
Contact Higher Praise
   
Advertising 
   Privacy Policy
//
He Died For You,  Click For Answer! This Is Who Jesus Is Video

'
 
0-9 A B C D E F G H I J K L M N O P Q R S T U V W X Y Z
.

//
Click For Printable...Version Of This File
 

Weathered Album


by Creed




------------------------------------------------------------
                    Weathered album
------------------------------------------------------------
Author/Artist: Creed
Title: Bullets
Album: Weathered
Tuning: Drop D
Transcribed by:Fernando Delgado        christopher bobo


Song – 3/4 time signature

Tab Key:
(5^) = right after he hits the open O's he frets a harmonic on the 5th
b = bend
\/ = whammy bar bend
/ = slide up
* = palm mute
^ph = pinch harmonic



Intro – Just how Mark Plays it on SNL.
Verse – Sounds right, cause it is!
Chorus – Whammy bar bends and palm muting
Post Chorus – Rapid fire baby!
Bridge – The same as intro riffs


Intro – (Mark uses the wah wah as a filter)
--------------------------------------------------

--------------------------------------------------

--------------------------------------------------

--------------------------------------------------

--------------------------------------------------

-0-0-0-0-0-0-0-0-0-0-0-0-0-0-0-0-0-0-0-0-0-0-0-0--

                 				      
--------------------------------------------------

--------------------------------------------------

--------------------------------------------------

--------------------------------------------------

--------------------------------------------------

-0-0-0-0-0-0-0-0-0-0-0-0-0-0-0-0-0-0-0-0-0-0-0-0--


Then this - (play 2x)
-------------------------------------------------------

-------------------------------------------------------

-------------------------------------------------------

-------------------------------------------------------

-12-12-12-12-12-12---------------------12-12-12-12-12--

--0--0--0--0--0--0-0-0-0-0-0-0-0-0-0-0--0--0--0--0--0--


-------------------------------------------------------

-------------------------------------------------------

-------------------------------------------------------

-------------------------------------------------------

-13-13-13-13-13-13---------------------13-13-12-12-12--

--0--0--0--0--0--0-0-0-0-0-0-0-0-0-0-0--0--0--0--0--0--


------------------------------------------------------

------------------------------------------------------

------------------------------------------------------

------------------------------------------------------

-10-10-10-10-10-10---------------------10-10-12-12-12-

--0--0--0--0--0--0-0-0-0-0-0-0-0-0-0-0--0--0--0--0--0-


------------------------------------------------------

------------------------------------------------------

------------------------------------------------------

------------------------------------------------------

-13-13-12-12-12-12-----------------------------12-12--

--0--0--0--0--0--0-0-0-0-0-0-0-0-0-0-0-0-0-0-0--0--0--


Then this - 
-------------------------------------------------------

-------------------------------------------------------

-------------------------------------------------------

-14-14-14-14-14-14---------------------14-14-14-14-14--

-12-12-12-12-12-12---------------------12-12-12-12-12--

--0--0--0--0--0--0-0-0-0-0-0-0-0-0-0-0--0--0--0--0--0--


-------------------------------------------------------

-------------------------------------------------------

-------------------------------------------------------

-15-15-15-15-15-15---------------------15-15-14-14-14--

-13-13-13-13-13-13---------------------13-13-12-12-12--

--0--0--0--0--0--0-0-0-0-0-0-0-0-0-0-0--0--0--0--0--0--


-------------------------------------------------------

-------------------------------------------------------

-------------------------------------------------------

-12-12-12-12-12-12---------------------12-12-14-14-14--

-10-10-10-10-10-10---------------------10-10-12-12-12--

--0--0--0--0--0--0-0-0-0-0-0-0-0-0-0-0--0--0--0--0--0--


------------------------------------------------------

------------------------------------------------------

-12-12-12-12-12-12---------------------12-12-12-12-12-

------------------------------------------------------

-10-10-10-10-10-10---------------------10-10-10-10-10-

--0--0--0--0--0--0-0-0-0-0-0-0-0-0-0-0--0--0--0--0--0-

     
-----------------------------------------------------------------

-----------------------------------------------------------------

-14-14-14-14-14-14-14-14-14-14-15-15-15-15-15-15/17-17-17-17-17--

-----------------------------------------------------------------

-12-12-12-12-12-12-12-12-12-12-13-13-13-13-13-13/15-15-15-15-15--

--0--0--0--0--0--0--0--0--0--0--0--0--0--0--0--0--0--------------



(distortion on, in at 0:47)
-----------------------------------------------------------------------

-----------------------------------------------------------------------

-----------------------------------------------------------------------

-----------------------------------------------------------------------

----------------------15--------------13-------------------------------

-13-12-0-12-0-12-0-12----12-0-12-0-12----12-0-12-0-12-13-12-0-10-12-0--



Verse – (all palm muted, in at 0:59)
-----------------------------------------------------------------------

-----------------------------------------------------------------------

-----------------------------------------------------------------------

-----------------------------------------------------------------------

----------------------15--------------13-------------------------------

-13-12-0-12-0-12-0-12----12-0-12-0-12----12-0-12-0-12-13-12-0-10-12-0--



Chorus – “Look at me . . .” (in at 1:22)
--------------------
--------------------

--------------------
--------------------

--------------------
--------------------

--------------0\/~--
--------------------

-0-1-0-1-0-1--0\/~--
-0-1-0-1-0-1--0-0-0-

-0-1-0-1-0-1--0\/~--
-0-1-0-1-0-1--0-0-0-

                                   * * *

--------------------
---------------------------

--------------------
---------------------------

--------------------
---------------------------

--------------0\/~--
----------------1^ph-------

-0-1-0-1-0-1--0\/~--
-0-1-0-1-0-1--0------3^ph--

-0-1-0-1-0-1--0\/~--
-0-1-0-1-0-1--0------------



Then the verse – 1:34


Then the chorus – 1:58


Post-Chorus – (rapid fire! In at 2:09)
------------------
-------------------
-------------------------

------------------
-------------------
-------------------------

------------------
-------------------
-------------------------

------------------
-------------------
-------------------------

-13-12-0-10-12-0--
--13-12-0-10-12-0--
--13-12-0-10-12---0-0-0--

-13-12-0-10-12-0--
--13-12-0-10-12-0--
--13-12-0-10-12---0-0-0--

                                                         * * *

------------------
-------------------
------------------------

------------------
-------------------
------------------------

------------------
-------------------
------------------------

------------------
-------------------
------------------------

-13-12-0-10-12-0--
--13-12-0-10-12-0--
--13-12-0-10-12---0\/~--

-13-12-0-10-12-0--
--13-12-0-10-12-0--
--13-12-0-10-12---0\/~--


------------------
-------------------
-------------------------

------------------
-------------------
-------------------------

------------------
-------------------
-------------------------

------------------
-------------------
-------------------------

-13-12-0-10-12-0--
--13-12-0-10-12-0--
--13-12-0-10-12---0-0-0--

-13-12-0-10-12-0--
--13-12-0-10-12-0--
--13-12-0-10-12---0-0-0--

                                                         * * *
 
------------------
-------------------
-------------------------

------------------
-------------------
-------------------------

------------------
-------------------
-------------------------

------------------
-------------------
-------------------------

-13-12-0-10-12-0--
--13-12-0-10-12-0--
--13-12-0-10-12---0-0-0--

-13-12-0-10-12-0--
--13-12-0-10-12-0--
--13-12-0-10-12---0-0-0--

                                                         * * *


Then this – (big ol’ whammy bar bends, bend to desired pitch)
---------------------------

---------------------------

---------------------------

-0(5^)\/~------------------

-0(5^)\/~------------------

-0(5^)\/~---5b\/~---3b\/~--



Bridge – “Hey, all I need is what’s real . . .” (in at 2:34)
-------------------------------------------------------

-------------------------------------------------------

-------------------------------------------------------

-------------------------------------------------------

-12-12-12-12-12-12---------------------12-12-12-12-12--

--0--0--0--0--0--0-0-0-0-0-0-0-0-0-0-0--0--0--0--0--0--


-------------------------------------------------------

-------------------------------------------------------

-------------------------------------------------------

-------------------------------------------------------

-13-13-13-13-13-13---------------------13-13-12-12-12--

--0--0--0--0--0--0-0-0-0-0-0-0-0-0-0-0--0--0--0--0--0--


------------------------------------------------------

------------------------------------------------------

------------------------------------------------------

------------------------------------------------------

-10-10-10-10-10-10---------------------10-10-12-12-12-

--0--0--0--0--0--0-0-0-0-0-0-0-0-0-0-0--0--0--0--0--0-


------------------------------------------------------

------------------------------------------------------

------------------------------------------------------

------------------------------------------------------

-13-13-12-12-12-12-----------------------------12-12--

--0--0--0--0--0--0-0-0-0-0-0-0-0-0-0-0-0-0-0-0--0--0--


Then this - 
-------------------------------------------------------

-------------------------------------------------------

-------------------------------------------------------

-14-14-14-14-14-14---------------------14-14-14-14-14--

-12-12-12-12-12-12---------------------12-12-12-12-12--

--0--0--0--0--0--0-0-0-0-0-0-0-0-0-0-0--0--0--0--0--0--


-------------------------------------------------------

-------------------------------------------------------

-------------------------------------------------------

-15-15-15-15-15-15---------------------15-15-14-14-14--

-13-13-13-13-13-13---------------------13-13-12-12-12--

--0--0--0--0--0--0-0-0-0-0-0-0-0-0-0-0--0--0--0--0--0--


-------------------------------------------------------

-------------------------------------------------------

-------------------------------------------------------

-12-12-12-12-12-12---------------------12-12-14-14-14--

-10-10-10-10-10-10---------------------10-10-12-12-12--

--0--0--0--0--0--0-0-0-0-0-0-0-0-0-0-0--0--0--0--0--0--


------------------------------------------------------

------------------------------------------------------

------------------------------------------------------

-15-15-14-14-14-14-----------------------------14-14--

-13-13-12-12-12-12-----------------------------12-12--

--0--0--0--0--0--0-0-0-0-0-0-0-0-0-0-0-0-0-0-0--0--0--


(distortion, in at 2:57) “Please, help me find it please . . .”
----------------------------------------------------------------------

----------------------------------------------------------------------

-14--14-14-14-14--14-14-14-14--14-14-14-14-14-14--14/15--15-15-15-15--

----------------------------------------------------------------------

-12--12-12-12-12--12-12-12-12--12-12-12-12-12-12--12/13--13-13-13-13--

--0---0--0--0--0---0--0--0--0---0--0--0--0--0--0---0------0--0--0--0--
           

---------------------------------------------------------------

---------------------------------------------------------------

-15-15-15-15--15-15-15-15-15-15--12--12-12-12-12--12-12-12-12--

---------------------------------------------------------------

-13-13-13-13--13-13-13-13-13-13--10--10-10-10-10--10-10-10-10--

--0--0--0--0---0--0--0--0--0--0---0---0--0--0--0---0--0--0--0--

                                                                             
---------------------------------------------

---------------------------------------------

-12-12-12--12/14-14-14--14/15--15-15--15/17--

---------------------------------------------

-10-10-10--10/12-12-12--12/13--13-13--13/15--

--0--0--0---0-----0--0---0------0--0---0-----
       


Then the chorus – in at 3:09

Then the post-chorus – in at 3:33

Last chord –
------

------

------

--0~--

--0~--

--0~--





------------------------------------------------------------
                       Freedom Fighter


Drop d tuning
Intro - Play 3x             Then this -
----------------------------
----------------------------------

----------------------------
----------------------------------

----------------------------
----------------------------------

-------------------------3--
----------------6p5p3-----3-------

-0-0--------3--0-0--3--5----
--0-0--------3---------5-----5-3--

-0-0--3--5-----0-0----------
--0-0--3--5-----------------------


Play 3x -                   Then this -
----------------------------
-----------------------------

----------------------------
-----------------------------

----------------------------
-----------------------------

-------------------------3--
--5b--5b--6p5p3-----3--------

-0-0--------3--0-0--3--5----
-----------------5-----5--3--

-0-0--3--5-----0-0----------
-----------------------------



Verse - (all palm muted except for the bends, in at 0:19)
Play 3x -                   Then this -
----------------------------
----------------------------------

----------------------------
----------------------------------

----------------------------
----------------------------------

-------------------------3--
----------------6p5p3-----3-------

-0-0--------3--0-0--3--5----
--0-0--------3---------5-----5-3--

-0-0--3--5-----0-0----------
--0-0--3--5-----------------------


Play 3x -                   Then this -
----------------------------
-----------------------------

----------------------------
-----------------------------

----------------------------
-----------------------------

-------------------------3--
--6b--6b--6p5p3-----3--------

-0-0--------3--0-0--3--5----
-----------------5-----5--3--

-0-0--3--5-----0-0----------
-----------------------------



Bridge - (with the fuzzy background vocals, in at 0:37)
----------------------------------------------------------------------

----------------------------------------------------------------------

-2-2-2-2--/5-5-5-5--4-4-4-4-------------------------------------------

-0-0-0-0--/5-5-5-5--4-4-4-4--\5-5-5--4-4--3-3-3-3--7-7-7-7\--2-2-2-2--

-0-0-0-0--/3-3-3-3--2-2-2-2--\5-5-5--4-4--3-3-3-3--7-7-7-7\--2-2-2-2--

-0-0-0-0---------------------\5-5-5--4-4--3-3-3-3--7-7-7-7\--2-2-2-2--

                                                             
---------------

---------------

---------------

-0-5-3-0-3b-0--

-0-5-3-0-3b-0--

-0-5-3-0-3b-0--


                                                                              
Then the verse - in at 0:46


Chorus - (in at 1:05) "I'm a freedom fighter, no remorse . . ."
----------------------------------------------------------------------

----------------------------------------------------------------------

-2-2-2-2--/5-5-5-5--4-4-4-4-------------------------------------------

-0-0-0-0--/5-5-5-5--4-4-4-4--\5-5-5--4-4--3-3-3-3--7-7-7-7\--2-2-2-2--

-0-0-0-0--/3-3-3-3--2-2-2-2--\5-5-5--4-4--3-3-3-3--7-7-7-7\--2-2-2-2--

-0-0-0-0---------------------\5-5-5--4-4--3-3-3-3--7-7-7-7\--2-2-2-2--

                                                             
---------------

---------------

---------------

-0-5-3-0-3b-0--

-0-5-3-0-3b-0--

-0-5-3-0-3b-0--


“Face to face with me . . .” (in at 1:14)
------------------------------------------------

------------------------------------------------

------------------------------------------------
 Light palm mute on 
-0--x-1-1---0--x-1-1---0--x-1-1---9-7--5-7-8-7--
 0pen 0's.
-0--x-1-1---0--x-1-1---0--x-1-1---9-7--5-7-8-7--

-0--x-1-1---0--x-1-1---0--x-1-1---9-7--5-7-8-7--


                                                                              
Bridge - “Can’t you hear us coming? . . . . .”
------------------------------------------------

------------------------------------------------

------------------------------------------------
 All Palm Muted
-0--x-1-1---0--x-1-1---0--x-1-1---9-7--5-7-8-7--
 (1:27)
-0--x-1-1---0--x-1-1---0--x-1-1---9-7--5-7-8-7--

-0--x-1-1---0--x-1-1---0--x-1-1---9-7--5-7-8-7--


Screaming part - "Can't you see we're coming? . . ."
-----------------------------------------------

-----------------------------------------------

-----------------------------------------------
 In at (1:51)
---------------------------------9-8--7-5-7-5--
 
--------------2------------------9-8--7-5-7-5--

-9-8-7-5-7-5----5b--9-8-7-5-7-5--9-8--7-5-7-5--


Then this riff (In at - 1:55) "Can't you se we're coming~~~~~?"
---------------------------------------------------

---------------------------------------------------
 
---------------------------------------------------

-0--0h2p0------0--0h2p0------0--0h2p0-------0-1-1--
 
-0--------3-0--0--------3-0--0--------3-0---0-1-1--

-0-------------0-------------0--------------0-1-1--


Then it ends on the chorus - in at 2:13

Very last part - "Face to face, Face to face, Face to face . . ."
-------------------------------------------
 
-------------------------------------------
 
-------------------------------------------

-5-3-0-3b--0--5-3-0-3b--0--5-3-0-3b---0-0--

-5-3-0-3b--0--5-3-0-3b--0--5-3-0-3b---0-0--
 
-5-3-0-3b--0--5-3-0-3b--0--5-3-0-3b---0-0--



Tab Key:
h = hammer on
p = pull off
b = bend
x = mute string
/ = slide up
\ = slide down

------------------------------------------------------------

                      Who got my back


Tuning: DADADD (low to high)

Notes:

Intro/Verse – There is a weird effect going on here. Delay or reverb?

Pre-Chorus/Chorus – Octave chords. Listen to song to get it right!

Interlude – clean but palm mute it!

Bridge – palm mute the open chords. 

Other – Just follow the song.


Intro - (clean tone, in at 1:18)                                                           
-16---16-17-19-19-20-19--
--22-20-19-17-19-17--
-20-
--17-16--14-14/16-17-16--

-------------------------
---------------------
-20-
-------------------------

-------------------------
---------------------
-20-
-------------------------

-------------------------
---------------------
----
-------------------------

-------------------------
---------------------
----
-------------------------

-------------------------
---------------------
----
-------------------------


                                                                          
Verse – (in at 1:41) “Run . . . hide . . .”
-16---16-17-19-19-20-19--
--22-20-19-17-19-17--
-20-

-------------------------
---------------------
-20-

-------------------------
---------------------
-20-

-------------------------
---------------------
----

-------------------------
---------------------
----

-------------------------
---------------------
----


-16---16-17-19-19-20-19--
--22-20-19-17-19-17--

-------------------------
---------------------

-------------------------
---------------------

-------------------------
---------------------

-------------------------
---------------------

-------------------------
---------------------

                                                                
-16---16-17-19-19-20-19--
--22-20-19-17-19-17--
-20-
--17-16--14-14/16-17-16--

-------------------------
---------------------
-20-
-------------------------

-------------------------
---------------------
-20-
-------------------------

-------------------------
---------------------
----
-------------------------

-------------------------
---------------------
----
-------------------------

-------------------------
---------------------
----
-------------------------



Pre–Chorus – (strum, in at 2:38) “To rest our head on . . .“                                                                             
-------------------------------------------------------------------------

-4-4-4-4-4-4-4-4-4-4-4/5-5-5-5-5-5-5/7-7-7-7-7\3-3-3-3-3-3-3-3-3-3-3-3/5-

-------------------------------------------------------------------------

-4-4-4-4-4-4-4-4-4-4-4/5-5-5-5-5-5-5/7-7-7-7-7\3-3-3-3-3-3-3-3-3-3-3-3/5-

-0-0-0-0-0-0-0-0-0-0-0-0-0-0-0-0-0-0-0-0-0-0-0-0-0-0-0-0-0-0-0-0-0-0-0-0-

-0-0-0-0-0-0-0-0-0-0-0-0-0-0-0-0-0-0-0-0-0-0-0-0-0-0-0-0-0-0-0-0-0-0-0-0-



Chorus - (strum with clean tone, in at 2:45)                            
“Who’s . . . . . . . . got my . . .  back . . .  now . . . .”
-----------------------------------------------------------------

-4-4-4-4-4-4-4-4-4-4-4--4/5--5-5-5-5-5-5-5-5-5-5--5/7---7--7--7--

-----------------------------------------------------------------

-4-4-4-4-4-4-4-4-4-4-4--4/5--5-5-5-5-5-5-5-5-5-5--5/7---7--7--7--

-0-0-0-0-0-0-0-0-0-0-0--0----0-0-0-0-0-0-0-0-0-0--0-----0--0--0--

-0-0-0-0-0-0-0-0-0-0-0--0----0-0-0-0-0-0-0-0-0-0--0-----0--0--0--

                                                                            
“When all we have left is deceptive . . . so disconnected . . . .”
------------------------------------------------------------

-5-5-5-5-5-5-5-5-10-10-8-7-5-5-5-5/7-5-5-5-5-5-5-5-5--9--9--

------------------------------------------------------------

-5-5-5-5-5-5-5-5-10-10-8-7-5-5-5-5/7-5-5-5-5-5-5-5-5--9--9--

-0-0-0-0-0-0-0-0--0--0-0-0-0-0-0-0-0-0-0-0-0-0-0-0-0--0--0--

-0-0-0-0-0-0-0-0--0--0-0-0-0-0-0-0-0-0-0-0-0-0-0-0-0--0--0--


“What is the truth now? . . .”
--------------------------------------------------

-----5-4-2-2/4-5-4----------4-4-4-4-4-4-4----5-5--

--------------------------------------------------

-----5-4-2-2/4-5-4----------4-4-4-4-4-4-4----5-5--

-----0-0-0-0-0-0-0----------0-0-0-0-0-0-0----0-0--

-----0-0-0-0-0-0-0----------0-0-0-0-0-0-0----0-0--



Then go into the verse (in at 3:08)


Pre-Chorus – (all palm muted, play with distortion, in at 4:29)       
------------------------------------------------------------------------------

-4b-----4-4-----4-5---5-5-5-5-5-5-5-5---10-10--8--7-5--7-5---5-5-5-5-5-5-5-5--

------------------------------------------------------------------------------

-4b-0---4-4-0-0-4-5---5-5-5-5-5-5-5-5---10-10--8--7-5--7-5---5-5-5-5-5-5-5-5--

------------------------------------------------------------------------------

-0--0---0-0-0-0-0-0---0-0-0-0-0-0-0-0----0--0--0--0-0--0-0---0-0-0-0-0-0-0-0--

      

Chorus – (distorted, in at 4:35)
“Who’s . . . . . . . . got my . . .  back . . .  now . . . .”
-----------------------------------------------------------------

-4-4-4-4-4-4-4-4-4-4-4--4/5--5-5-5-5-5-5-5-5-5-5--5/7---7--7--7--

-----------------------------------------------------------------

-4-4-4-4-4-4-4-4-4-4-4--4/5--5-5-5-5-5-5-5-5-5-5--5/7---7--7--7--

-0-0-0-0-0-0-0-0-0-0-0--0----0-0-0-0-0-0-0-0-0-0--0-----0--0--0--

-0-0-0-0-0-0-0-0-0-0-0--0----0-0-0-0-0-0-0-0-0-0--0-----0--0--0--

                                                                            
“When all we have left is deceptive . . . so disconnected . . . .”
------------------------------------------------------------

-5-5-5-5-5-5-5-5-10-10-8-7-5-5-5-5/7-5-5-5-5-5-5-5-5--9--9--

------------------------------------------------------------

-5-5-5-5-5-5-5-5-10-10-8-7-5-5-5-5/7-5-5-5-5-5-5-5-5--9--9--

-0-0-0-0-0-0-0-0--0--0-0-0-0-0-0-0-0-0-0-0-0-0-0-0-0--0--0--

-0-0-0-0-0-0-0-0--0--0-0-0-0-0-0-0-0-0-0-0-0-0-0-0-0--0--0--


“What is the truth now? . . .”
--------------------------------------------------

-----5-4-2-2/4-5-4----------4-4-4-4-4-4-4----5-5--

--------------------------------------------------

-----5-4-2-2/4-5-4----------4-4-4-4-4-4-4----5-5--

--------------------------------------------------

-----0-0-0-0-0-0-0----------0-0-0-0-0-0-0----0-0--



Then it goes into the ‘tribal’ interlude – (in at 5:20)

Play 3 x -   Then this -
-------------
---------------------------

-------------
---------------------------
 This is all
-------------
---------------------------
 palm muted!
-5--7--8--7--
--5--7--8--7--10--8--7--5--

-------------
---------------------------

-------------
---------------------------

                                                                                                                                

Bridge – (in at 5:47) “What is the truth now?”
---------------------------------

-4-5--7-------5--7--8-------8-5--

---------------------------------
 The open 0’s are
-4-5--7--0-0--5--7--8--0-0--8-5--
 palm muted
---------0-0-----------0-0-------

-0-0--0--0-0--0--0--0--0-0--0-0--


It goes onto the chorus. (in at 6:07) “Who’s got my back now?”
 
Then play the bridge until the end “What is the truth now . . .” (in at 6:51)

Then goes back to the Cherokee Indian chants.

Tab Key -  
b = bend string
/ = slide up
\ = slide down



------------------------------------------------------------
                           Signs

Drop-D Tuning

Intro :

e
------------------------------------------

b
------------------------------------------

g
------------------------------------------

d
-2b3-0--2b3-0--2b3-0--2b3-0--2b3-0--2b3~~-

a
-2b3-0--2b3-0--2b3-0--2b3-0--2b3-0--2b3~~-

d
-2b3-0--2b3-0--2b3-0--2b3-0--2b3-0--2b3~~-


Verses :

e
----------------------------

b
----------------------------

g
----------------------------

d
-2b3-0--2b3-0--2b3-0--2b3-0-

a
-2b3-0--2b3-0--2b3-0--2b3-0-

d
-2b3-0--2b3-0--2b3-0--2b3-0-


e
-----------------------------------------------------

b
-----------------------------------------------------

g
-----------------------------------------------------

d
-2b3-0--2b3-0--2b3-0-2-3-2-0-2-3-2-0-2-3-2-0-2-3-2-0-

a
-2b3-0--2b3-0--2b3-0-2-3-2-0-2-3-2-0-2-3-2-0-2-3-2-0-

d
-2b3-0--2b3-0--2b3-0-2-3-2-0-2-3-2-0-2-3-2-0-2-3-2-0-

                    pm.................................

I know this last part isn't correct, forgive me if i say
i couldn't be arsed to try and make it sound exactly the
same. Played like this it sounds nice too... ;-p

Chorus :

e
----------------------------------------------------------------------

b
----------------------------------------------------------------------

g
-----------------------------------------5-5-5-5-5/7\5--4-4-4-4-4/5\4-

d
-8----------7-------------3-------------------------------------------

a
-8----------7-------------3--------------3-3-3-3-3/5\3--2-2-2-2-2/3\2-

d
-8----------7-------------3-------------------------------------------

pm..................................
Come with me, i'm fading, underneath the light

e
-------------------------------------------

b
-------------------------------------------

g
-------------------------------------------

d
-8----------7-------------3------------2~~-

a
-8----------7-------------3------------2~~-

d
-8----------7-------------3------------2~~-

pm..................................
Come with me, come with me, come with me now

Bridge :

e
-----------------------

b
-----------------------

g
-----------------------

d
-----8~~-----7~~-------

a
-8~~-----8~~-----8\5~~-

d
-----------------------

with wah-pedal

e
-----------------------------

b
-----------------------------

g
-----------------------------

d
-3~~-0-8~~--3~~-0-7~~--3-0~~-

a
-3~~-0-8~~--3~~-0-7~~--3-0~~-

d
-3~~-0-8~~--3~~-0-7~~--3-0~~-


Before last chorus + ending        end on this

e
---------------------------
     
-----

b
---------------------------
     
-----

g
---------------------------
     
-----

d
-3~~--8~~--3~~--7~~--3-0~~-
     
-3-0-

a
-3~~--8~~--3~~--7~~--3-0~~-
     
-3-0-

d
-3~~--8~~--3~~--7~~--3-0~~-
     
-3-0-

                                   pm.....


------------------------------------------------------------
                       One last breath

Standard Tuning

Intro & Verses : (fingerpicked)

e
-2---5--0h2--------------------------------------------

b
------------3------2--3--5--5p3p2-3--------3---2h3-----

g
--------------2---------------------2--4-----------4---

d
-0-0--0----------------------------------------------4-

a
-----------------0----------0----------2-2---2---------

e
-------------------------------------------------------


e
-------------3-2-

b
---------3-------

g
-----0-----2-----

d
---0---0---------

a
-----------------

e
-3---------------


e
-2---3---2-0h2p0---------------------------------2-------

b
-----------------3---------2-2h3p2p0-----------2---2-----

g
-------------------2-----2------------0------4-------4---

d
-0-0---0---------------2------------4------4-----------0-

a
---------------------0-------------------2---------------

e
---------------------------------------------------------


e
---------3-------

b
-------3---3-----

g
-----0-------0---

d
---0-----------0-

a
-----------------

e
-3---------------


Chorus :

D         F# 
  Hold me now

    Bm                G                    
I'm six feet from the edge and I'm thinkin'

D       F#
  Maybe six feet

      Bm     G
Ain't so far down


Repeat the whole thing once,
the second time the chorus is distorted,
and goes like this :

e
----------------------------------------------------------

b
----------------------------------------------------------

g
-7--------------------------------------------------------

d
-7---------4--------9-----------------5-------------------

a
-5---------4--------9-----------------5-------------------

e
-----------2--------7-----------------3-------------------

     Hold me now, I'm six feet from the edge and I'm thinkin'

e
----------------------------------------------------------

b
----------------------------------------------------------

g
-7--------------------------------------------------------

d
-7-------4-----------------9------5-----------------------

a
-5-------4-----------------9------5-----------------------

e
---------2-----------------7------3-----------------------

     Maybe six feet... ain't so far down


e
---------------------------------

b
---------------------------------

g
---------------------------------

d
-9------5----------9------5------

a
-9------5----------9------5------

e
-7------3----------7------3------

                 I'm so far down

Bridge :

e
---------------------------------

b
---------------------------------

g
---------------------------------

d
-2--------9-----7-----4----------

a
-2--------x-----x-----x----------

e
-0--------7-----5-----2----------

   Sad eyes fol - low   me

e
--------------------------------------------------

b
--------------------------------------------------

g
--------------------------------------------------

d
---------------2-------------9------------------5-

a
---------------2-------------9------------------5-

e
---------------0-------------7------------------3-

   But I still believe there's something left for me

now play the chorus again,
one time without distortion,
and once with distortion

Outro : (with plectrum : same as intro, but without the bass notes)

e
-2---5--0h2--------------------------------------------

b
------------3------2--3--5--5p3p2-3--------3---2h3-----

g
--------------2---------------------2--4-----------4---

d
-----------------------------------------------------4-

a
-------------------------------------------------------

e
-------------------------------------------------------


e
-------------3~~~~-

b
-------3~~---------

g
-----0-----2-------

d
---0---------------

a
-------------------

e
-3-----------------


------------------------------------------------------------
                         My Sacrifice


Drop – D


INTRO
E---------------------------------5--------5-----------------------------------------------------
B---------------3--------------------------------------------------------------------------------
G---------4-------------------------7--------7------7/6---6/7---7-------7/6---6/11---11/12---11--
D------4----4----------------7---------7---------------------------------------------------------
A----2-----------------0—5--------------------------5/4---4/5---5-------5/4---4/9-----9/10----9--
D------------------------------------------------------------------------------------------------

      
E-------------------------------5----------5----------------------------------------------
B---------------3-------------------------------------------------------------------------
G---------4-------------------------7---------7-----------7/6---6/7---7---7----7/6---6/7--
D------4----4----------------7----------7-------------------------------------------------
A----2-----------------0—5--------------------------------5/4---4/5---5---5----5/4---4/5--
D-----------------------------------------------------------------------------------------

3 times
E--------------------------------------------------------------------------------
B--------------------------------------------------------------------------------
G----7/6---6/7---7---7----7/6--—7/6/7---7-----4-4-4-4-4-4------------------------
D----7/6---6/7---7---7----7/6--—7/6/7---7-----4-4-4-4-4-4-------5-5-5-5-5-5-5-5--
A----5/4---4/5---5---5----5/4--—5/4/5---5-----2-2-2-2-2-2-------5-5-5-5-5-5-5-5--
D---------------------------------------------------------------5-5-5-5-5-5-5-5--

E------------------------------------------------------------------------------------------
A------------------------------------------------------------------------------------------
G----7-7-7-7-7-7-7-7--—9-9-9-9-9-9-9-9--—4-4-4-4-4-4-4-------------------------------------
D----7-7-7-7-7-7-7-7—--9-9-9-9-9-9-9-9—--4-4-4-4-4-4-4—--5-5-5-5-5-5-5-5----5p0---0---5p0--
A----5-5-5-5-5-5-5-5---7-7-7-7-7-7-7-7—--2-2-2-2-2-2-2---5-5-5-5-5-5-5-5----5p0---0---5p0--
D--------------------------------------------------------5-5-5-5-5-5-5-5----5p0---0---5p0--

E-------------------------------------------------------------------------
A-------------------------------------------------------------------------
G----7-7-7-7-7-7-7-7--—9-9-9-9-9-9-9-9--—4-4-4-4-4-4-4--------------------
D----7-7-7-7-7-7-7-7—--9-9-9-9-9-9-9-9—--4-4-4-4-4-4-4—--5-5-5-5-5-5-5-5--
A----5-5-5-5-5-5-5-5---7-7-7-7-7-7-7-7—--2-2-2-2-2-2-2---5-5-5-5-5-5-5-5--
D--------------------------------------------------------5-5-5-5-5-5-5-5--

3 times
E--------------------------------------------------------------------------------
B--------------------------------------------------------------------------------
G----7/6---6/7---7---7----7/6--—7/6/7---7-----4-4-4-4-4-4------------------------
D----7/6---6/7---7---7----7/6--—7/6/7---7-----4-4-4-4-4-4-------5-5-5-5-5-5-5-5--
A----5/4---4/5---5---5----5/4--—5/4/5---5-----2-2-2-2-2-2-------5-5-5-5-5-5-5-5--
D---------------------------------------------------------------5-5-5-5-5-5-5-5--

E------------------------------------------------------------------------------------------
A------------------------------------------------------------------------------------------
G----7-7-7-7-7-7-7-7--—9-9-9-9-9-9-9-9--—4-4-4-4-4-4-4-------------------------------------
D----7-7-7-7-7-7-7-7—--9-9-9-9-9-9-9-9—--4-4-4-4-4-4-4—--5-5-5-5-5-5-5-5----5p0---0---5p0--
A----5-5-5-5-5-5-5-5---7-7-7-7-7-7-7-7—--2-2-2-2-2-2-2---5-5-5-5-5-5-5-5----5p0---0---5p0--
D--------------------------------------------------------5-5-5-5-5-5-5-5----5p0---0---5p0--

E-------------------------------------------------------------------------
A-------------------------------------------------------------------------
G----7-7-7-7-7-7-7-7--—9-9-9-9-9-9-9-9--—4-4-4-4-4-4-4--------------------
D----7-7-7-7-7-7-7-7—--9-9-9-9-9-9-9-9—--4-4-4-4-4-4-4—--5-5-5-5-5-5-5-5--
A----5-5-5-5-5-5-5-5---7-7-7-7-7-7-7-7—--2-2-2-2-2-2-2---5-5-5-5-5-5-5-5--
D--------------------------------------------------------5-5-5-5-5-5-5-5--

E-----------------------------------------------------
A-----------------------------------------------------
G—-11/9-–9-9-----9/7-–7-7-----7/6–-6-6--x--6-6/7-7-7--
D—-11/9–-9-9-----9/7-–7-7-----7/6-–6-6--x--6-6/7-7-7--
A---9/7--7-7-----7/5--5-5-----5/4--4-4--x--4-4/5-5-5--
D-----------------------------------------------------

E-– Some Type of E Chord
A-------------------
G–-9-9-9-9-9--------
D–-8-8-8-8-8--------
A-–7-7-7-7-7--------
D-------------------

Just strum the last intro chords using the wah to give it those little effects and it comes out sounding 
similar to the real thing.

3 times
E--------------------------------------------------------------------------------
B--------------------------------------------------------------------------------
G----7/6---6/7---7---7----7/6--—7/6/7---7-----4-4-4-4-4-4------------------------
D----7/6---6/7---7---7----7/6--—7/6/7---7-----4-4-4-4-4-4-------5-5-5-5-5-5-5-5--
A----5/4---4/5---5---5----5/4--—5/4/5---5-----2-2-2-2-2-2-------5-5-5-5-5-5-5-5--
D---------------------------------------------------------------5-5-5-5-5-5-5-5--

E------------------------------------------------------------------------------------------
A------------------------------------------------------------------------------------------
G----7-7-7-7-7-7-7-7--—9-9-9-9-9-9-9-9--—4-4-4-4-4-4-4-------------------------------------
D----7-7-7-7-7-7-7-7—--9-9-9-9-9-9-9-9—--4-4-4-4-4-4-4—--5-5-5-5-5-5-5-5----5p0---0---5p0--
A----5-5-5-5-5-5-5-5---7-7-7-7-7-7-7-7—--2-2-2-2-2-2-2---5-5-5-5-5-5-5-5----5p0---0---5p0--
D--------------------------------------------------------5-5-5-5-5-5-5-5----5p0---0---5p0--

E-----------------------------------------------------
A-----------------------------------------------------
G—-11/9-–9-9-----9/7-–7-7-----7/6–-6-6--x--6-6/7-7-7--
D—-11/9–-9-9-----9/7-–7-7-----7/6-–6-6--x--6-6/7-7-7--
A---9/7--7-7-----7/5--5-5-----5/4--4-4--x--4-4/5-5-5--
D-----------------------------------------------------

E-– Some Type of E Chord
A----------------------
G–-9-9-9-9-9-----------
D–-8-8-8-8-8--------0--
A-–7-7-7-7-7--------0--
D-------------------0--

------------------------------------------------------------
                     Stand here with me


Drop d



Intro (clean)

e
-------------------------------------------------------

B
--------------------------7-------------7---7h8-8-7----

G
----6/7---6/7---8-7\6---7-----------7---------------7--

D
-------------------------------------------------------

A
--0-----0-----0------0------------0---0---0------------

D
-------------------------------------------------------



e
-------------------------------------------------------

B
-------------------------------------------------------

G
--------------4-6-7b-r------------------4-6-7/9--------

D
---------7-7------------------------7-7----------------

A
---0-4-5----------------------0-4-5--------------------

D
-0--------------------------0--------------------------



Verse (Distortion Kicks In)
e
-------------------------------------------------------

B
--------------------------7-------------7---8b-8-7-----

G
----6/7---6/7---8-7\6---7-----------7--------------7---

D
-------------------------------------------------------

A
--0-----0-----0------0------------0---0---0------------

D
-------------------------------------------------------


e
-------------------------------------------------------

B
-------------------------------------------------------

G
--------------4-6-7b-r-----------------4-6-7/9---------

D
---------7-7-----------------------7-7-----------------

A
---0-4-5---------------------0-4-5---------------------

D
-0-------------------------0---------------------------



e
-------------------------------------------------------

B
---------------------------7-------------7---7h8-8-7---

G
----6/7---6/7---8-7\6----7-----------7---------------7-

D
-------------------------------------------------------

A
--0-----0------0-----0------------0---0---0------------

D
-------------------------------------------------------



e
-------------------------------------------------------

B
-------------------------------------------------------

G
--------------4-6-7b-r------------------4-6-7/9--------

D
---------7-7------------------------7-7----------------

A
---0-4-5----------------------0-4-5--------------------

D
-0--------------------------0--------------------------
 x2


e
-------------------------------------------------------

B
--------------------------7-------------7---8b-8-7-----

G
----6/7---6/7---8-7\6----7-----------7--------------7--

D
-------------------------------------------------------

A
--0-----0-----0-------0------------0---0---0-----------

D
-------------------------------------------------------


e
-------------------------------------------------------

B
-------------------------------------------------------

G
--------------4-6-7b-r-----------------4-6-7/9---------

D
---------7-7-----------------------7-7-----------------

A
---0-4-5---------------------0-4-5---------------------

D
-0-------------------------0---------------------------


Chorus (strumming not shown) ("cause you stand here with me")
e
-------------------------------------------------------

B
-------------------------------------------------------

G
-------------------------------------------------------

D
5-0m---------------------------------------------------

A
5-0m---------------------------------------------------

D
5-0m---------------------------------------------------



e
-------------------------------------------------------

B
-------------------------------------------------------

G
-5-----------------------------------------------------

D
-5-----------------5-----3-------5---0-0h3-0-0--0------

A
-3-----------------5-----3-------5---0-0h3-0-0--0------

D
-------------------5-----3-------5---0-0h3-0-0--0------


("cause you stand here with me")
e
-------------------------------------------------------

B
-------------------------------------------------------

G
-------------------------------------------------------

D
5-0m---------------------------------------------------

A
5-0m---------------------------------------------------

D
5-0m---------------------------------------------------



e
-------------------------------------------------------

B
-------------------------------------------------------

G
-5-----------------------------------------------------

D
-5-----------------5-----3-------5---0-0h3-0-0---------

A
-3-----------------5-----3-------5---0-0h3-0-0--3-5b---

D
-------------------5-----3-------5---0-0h3-0-0---------




Verse
e
-------------------------------------------------------

B
--------------------------7-------------7---8b-8-7-----

G
----6/7---6/7---8-7\6---7-----------7--------------7---

D
-------------------------------------------------------

A
--0-----0-----0------0------------0---0---0------------

D
-------------------------------------------------------


e
-------------------------------------------------------

B
-------------------------------------------------------

G
--------------4-6-7b-r-----------------4-6-7/9---------

D
---------7-7-----------------------7-7-----------------

A
---0-4-5---------------------0-4-5---------------------

D
-0-------------------------0---------------------------



e
-------------------------------------------------------

B
--------------------------7-------------7---7h8-8-7----

G
----6/7---6/7---8-7\6---7-----------7---------------7--

D
-------------------------------------------------------

A
--0-----0-----0------0------------0---0---0------------

D
-------------------------------------------------------



e
-------------------------------------------------------

B
-------------------------------------------------------

G
--------------4-6-7b-r------------------4-6-7/9--------

D
---------7-7------------------------7-7----------------

A
---0-4-5----------------------0-4-5--------------------

D
-0--------------------------0--------------------------
 x2


Chorus (strumming not shown) ("cause you stand here with me")
e
-------------------------------------------------------

B
-------------------------------------------------------

G
-------------------------------------------------------

D
5-0m---------------------------------------------------

A
5-0m---------------------------------------------------

D
5-0m---------------------------------------------------



e
-------------------------------------------------------

B
-------------------------------------------------------

G
-5-----------------------------------------------------

D
-5-----------------5-----3-------5---0-0h3-0-0--0-0h3--

A
-3-----------------5-----3-------5---0-0h3-0-0--0-0h3--

D
-------------------5-----3-------5---0-0h3-0-0--0-0h3--


("cause you stand here with me")
e
-------------------------------------------------------

B
-------------------------------------------------------

G
-------------------------------------------------------

D
5-0m---------------------------------------------------

A
5-0m---------------------------------------------------

D
5-0m---------------------------------------------------



e
-------------------------------------------------------

B
-------------------------------------------------------

G
-5-----------------------------------------------------

D
-5-----------------5-----3-------5---0-0h3-0-0---------

A
-3-----------------5-----3-------5---0-0h3-0-0--3-5b---

D
-------------------5-----3-------5---0-0h3-0-0---------



("cause you stand here with me")
e
-------------------------------------------------------

B
-------------------------------------------------------

G
-------------------------------------------------------

D
5-0m---------------------------------------------------

A
5-0m---------------------------------------------------

D
5-0m---------------------------------------------------


SOLO!!!
e
-------------------------------------------------------

B
-------------------------------------------------------

G
-------9b-7---7-9-10-7---------7-10-7h10p7-----7-------

D
12\----------------------10\----------------10---10-7--

A
12\----------------------10\---------------------------

D
12\----------------------10\---------------------------



e
-------------------14b-15b--13~--13-10-12----10--------

B
------------------------------------------13----13b-13-

G
-------------------------------------------------------

D
-------------------------------------------------------

A
10-9-10-9-10-9~----------------------------------------

D
-----------------0-------------------------------------



e
-------------------------------------------------------

B
-------------------------------------------------------

G
-9-10-12-10p9h10----9---------------10-----------------

D
-----------------12---10-12~--10-12----12-10-12\-------

A
-------------------------------------------------------

D
--------------------------------------------------0----



e
-14-12-14----14-12-14-15-14-12-14-15-14-12-14----------

B
----------15----------------------------------15-------

G
-------------------------------------------------------

D
-------------------------------------------------------

A
-------------------------------------------------------

D
-------------------------------------------------------



e
-14-12-14-15-14-12-14-15-14-12-14----------------------

B
----------------------------------15-------------------

G
-------------------------------------------------------

D
-------------------------------------------------------

A
-------------------------------------------------------

D
-------------------------------------------------------



e
-14-12-14-15-14-12-14-15-14-12-14----------------------

B
-------------------------------------------------------

G
-------------------------------------------------------

D
-------------------------------------------------------

A
-------------------------------------------------------

D
-------------------------------------------------------



e
-14h17p14--14h17p14--14h17p14--14h17p14--14h19p14------

B
---------15--------15--------15--------15--------15----

G
-------------------------------------------------------

D
-------------------------------------------------------

A
-------------------------------------------------------

D
-------------------------------------------------------



e
-14h17p14--14h19p14--14h17p14----17b-17b-17b-r~~-------

B
---------15--------15--------15------------------------

G
-------------------------------------------------------

D
-------------------------------------------------------

A
-------------------------------------------------------

D
-------------------------------------------------------


("on and on and on we sing...")
e
-------------------------------------------------------

B
----------------------------------------------7--------

G
--------------4-6-7b-r----6/7---6/7---7\6---7----------

D
---------7-7-------------------------------------------

A
---0-4-5----------------0-----0-----0-----0------------

D
-0-----------------------------------------------------



e
-------------------------------------------------------

B
-----7-8b-8-7------------------------------------------

G
---7----------7----------------------------------------

D
-------------------------------------------------------

A
-0-----------------------------------------------------

D
-------------------------------------------------------
x5=20
(On the fifth time fade out)

Key:
m=3Dpalm mute
b=3Dbend
r=3Drelease
h=3Dhammer on
p=3Dpull-off
/=3Dslide up
\=3Dslide down


------------------------------------------------------------
                          Weathered

Main Riff                   Ending 1  Ending 2
d-
-3p0------------(0)--------------------
------14-
2p0----------

D-
-------0---------0---------------------
-12---12-
----2/4---0--

A-
-----0---0---------0-------------------
-12------
------------3

D-
-----------0---------0--------0-5/3--0-
---------
-------------

A-
-------------0--------------0----------
---------
-------------

D-
-----------------------3/5-------------
---------
-------------


For ending 3, make some harmonics and/or just hold one note in the scale, 
this is a very 
bluesy song in that you can pretty much imrpov after the main riff.  Endin 1 
is played the 
first time and ending 2 is played about every 4th time, or in guitar breaks.  
Then before 
the chorus hold out the 'creed' harmonic, 2.7 fret, low D string.


   Chorus (strumming patterns not shown, measures are)
  Distorted
d-
-0--8-
-3---------
----
------------------------------

D-
-0--8-
-3---------
----
------------------------------

A-
-0--8-
-3-3/5-3-0-
----
------------------------------

D-
-0--8-
-3-------0-
----
8-------8-------8-------8-8-8-

A-
-0--8-
-3-3/5-3-0-
-8--
8-------8-------8-------8-8-8-

D-
-0--8-
-3---------
-9--
8-8-8-8-8-8-8-8-8-8-8-8-8-8-8-


d-
----------------------------

D-
----------------------------

A-
----------------------------

D-
-5-------5-------5-3-0-3-3--

A-
-5-------5-------5-3-0-3-3--

D-
-5-5-5-5-5-5-5-5-5-3-0-3-3--


Play the chorus 2X, then go back to the verse, then chorus 4X, then the 
interlude:
   Heavy Distortion
I.
d-
------------------------------

D-
------------------------------

A-
5-----5-----5-----5-----5h6p5-

D-
x-----x-----x-----x-----x-----

A-
5-----5-----5-----5-----5-----

D-
--0-0---0-0---0-0---0-0-------


II.
d-
------------------------------

D-
------------------------------

A-
1-----1-----1-----1-----1h3p1-

D-
x-----x-----x-----x-----x-----

A-
1-----1-----1-----1-----1-----

D-
--0-0---0-0---0-0---0-0-------


III.
d-
------------------------------

D-
------------------------------

A-
0-----0-----0-----0-----0-----

D-
0-----0-----0-----0-----0-----

A-
0-----0-----0-----0-----0-----

D-
--0-0---0-0---0-0---0-0-------


The pattern is I, II, III, II  Play that twice

IV.
Strumming Not Shown

d-
9----3-
---2----3-----------------

D-
9----3-
---2----3-----------------

A-
7----1-
---0----1-----------------

D-
-------
-----------8--5--5-3-0-3-3

A-
-------
-----------8--5--5-3-0-3-3

D-
-------
-----------8--5--5-3-0-3-3


------------------------------------------------------------
                            Hide


           intro                   2x                                   
F----------------------------------
-----------------------------------
D----------------------------------
-----------------------------------
Bb--------------------------------*
-----------------------------------
F------9^--9-----9--9^--9-----10--*
-----------------------------------
Bb--0---------0------------0-------
-----------------------------------
F----------------------------------
-----------------------------------
                                                                        

    harmonics                                                           
F---12------------------------------------------------------------------
D-------12--------------------------------------------------------------
Bb----------------------------------------------------------------------
F-----------------------------------------------------------------------
Bb----------------------------------------------------------0-----------
F-----------------------------------------------------------------------
                                                                        

    intro 2                                                             
F------------------------------------0---0---0---0----------------------
D------------------------------------12--12--12--12---------------------
Bb-----------------------------------0---0---0---0----------------------
F---9^--9--------9--9^--9-----10-----10--10--10--10---------------------
Bb------------0------------0--------------------------------------------
F-----------------------------------------------------------------------
                                                                        

             verse                                  (listen to cd
                                                      for strumming pattern)
F------------------------------------------0--------0--0--0--0--0--0----
D---------------------------------------------0-----0--0--0--0--0--0----
Bb-----------------0--------------0--------------0--0--0--0--0--0--0----
F---------------4-----4--------4-----4--------------x--x--x--x--9--7----
Bb-----------4--------------2-----------2-----------7--7--7--7--7--7----
F---------2--------------0--------------------------5--5--5--5--5--5----
                                                                        

                   chord before chorus                                  
F------------------0--0--0--------------
------------------------------
D------------------0--0--0--------------
------------------------------
Bb-----------------0--0--0--------------
------------------------------
F------------------x--x--x--------------
------------------------------
Bb-----------------12-12-12-------------
------------------------------
F------------------10-10-10-------------
------------------------------
                                                                        

             chorus chords(once again listen for strumming pattern)                  
F---0-----0-0--0-0-0---0--------0-0---0---0-------------------------0-------0--0--0--
D---0-----3-0--0-0-0---0--------0-0----0----0-------------------------0-----0--0--0--
Bb--0-0h2 2-2/44-0-0h2p0--------0-0-----0------------0--------0---------0---0--0--0--
F---0-----0-0--0-0-0---0--------0-0----------------4---4----4---4-----------x--x--x-
Bb--0-----0-0--0-0-0---0--------7-7--------------4--------2-------2---------12-12-12-
F---0-----0-0--0-0-0---0--------4-4-------------2-------0-------------------10-9 -10--
                                                                        

    chord at end of chorus                                              
F-----------------------------------------------------------------------
D-----------------------------------------------------------------------
Bb--0-------------------------------------------------------------------
F----------------------------------------------------------------------
Bb--12------------------------------------------------------------------
F---9--------------------------------------------------------------------

------------------------------------------------------------

                       Dont stop Dancing



Standard tuning.


Verse – (listen to the song for strumming pattern)
“At times life is wicked and I just can’t see the light”
-3--------------------------3------------------0--0-----0-0--

-3--------------------------3------------------1--0-----1-0--

-0--------------------------0------------------0--0-----0-0--

-0--------------------------0------------------2--2-----2-2--

-2--------------------------0------------------3--3-----3-3--

-3--------------------------2--------------------------------



Pre-Chorus – (listen for strumming pattern)
“But I know I must go on . . . I heard I must be strong”                                                                               
-0--------------------------------0--------------------

-1--------------------------------1--------------------

-2--------------------------------0--------------------

-2--------------------------------2--------------------

-0--------------------------------3--------------------

----------------------------------0--------------------


Then kick in the distortion for this passage -

“Cause inside I know that many feel this way~~~~~~ . . .”
---------------------------------------------------------

---------------------------------------------------------

---------------------------------------------5-5-5---/7--

-------2-~~~~~~~~~~~~~~~~~~~~~~~~~~~---------5-5-5---/7--

-------2-~~~~~~~~~~~~~~~~~~~~~~~~~~~---------3-3-3---/5--

-------0-~~~~~~~~~~~~~~~~~~~~~~~~~~~---------------------

                                   
                                           
Chorus – (strum chords)
“Children don’t stop dancing” “Believe you can fly~~~~ away; away“
------------------------------
-----------------------------------

------------------------------
-----------------------------------

---------7--------------------
----5---------------------------5--
  
-5-------7------7-------7-----
----5-----------5------/7-------5--
 
-5-------5------7-------7-----
----3-----------5------/7-------3--

-3--------------5-------5-----
----------------3------/5----------


Play the verse (with some picking)

Then Pre-Chorus 

Then the Chorus

Solo – (in at 1:58)
-/12-/14-/15---/17--17----19b-19b--
 
-----------------------------------
 
-----------------------------------
 
-----------------------------------
 
-----------------------------------
 
-----------------------------------


Play the next bar 3x -
-10---------------------10----------------10---12b--

----------10--12---10---------10-12-10--------------

----------------------------------------------------

----------------------------------------------------

----------------------------------------------------

----------------------------------------------------


The 4th time play these next two bars -
-12p10----------------------------
 
----------10-----------(10)---12--
 
----------------12v---------------

----------------------------------
 
----------------------------------

----------------------------------

 
-----------------------------------12b~--

-10b-------------------------------16b~--

--------12v---11v---11bp9----------------

-----------------------------12v---------

-----------------------------------------

-----------------------------------------

                                                                              

Bridge – 
“Are we hiding ~~~~ in the shadows?”
----------------
-----------------

----------------
-----------------

-7--------------
-----5-----------
 Strum the chords
-7--------7-----
-----5--------5--

-5--------7-----
-----3--------5--

----------5-----
--------------3--



Pre-Chorus – (just guitar, strum all chords softly)
“But I know I must go on . . . I heard I must be strong”
-0--------------------------------0--------------------

-1--------------------------------1--------------------

-2--------------------------------0--------------------

-2--------------------------------2--------------------

-0--------------------------------3--------------------

----------------------------------0--------------------


“Cause inside I know that many feel this way~~~~~~ . . .”
-------------------------------------------------------

-------------------------------------------0-------(0)-

-------------------------------------------5-------(7)-

-------2------------2--------2-------------5-------(7)-

-------2------------2--------2-------------3-------(5)-

-------0------------0--------0-------------------------



Clean Chorus – (strum softly)
“Children don’t stop dancing” “Believe you can fly . . .”
-3------2------0-------0--
------------------------0--

-3------3------2-------2--
------------------------2--

-0------2------2-------2--
------0---------0-------2--

-0------0------2-------2--
------2---------0-------2--

-2-------------0-------0--
------3---------2-------0--

-3------------------------
----------------3----------


Kick in distortion – “Away~~~”
---------------------

---------------------

5-5-5-5-5-5-5-5---5--
 All palm muted
5-5-5-5-5-5-5-5---5--

3-3-3-3-3-3-3-3---3--
                                                       
---------------------


Then go into regular chorus

Outro –
“Am I hiding ~~~~ in the shadows?”
----------------
-----------------

-0--------------
-----0-----------

-7--------0-----
-----5--------0--
 Strum the chords
-7--------7-----
-----5--------5--

-5--------7-----
-----3--------5--

----------5-----
--------------3--


Tab Key –
~ = hold note
b = bend note
v = vibrate note
p = pull off
/ = slide up
r = release note
(10) = ghost note or sustain note

------------------------------------------------------------
                            Lullaly

Tuning - Drop D (D, A, D, G, B, E)



Verse
e----------------------------------
------------------------------------

b----3--2---2--0-------------------
---3--2---/5--3----------5----------

g------------------4--2------------
------------------/4--2-------------

d------------------------0--0------
-----------------------------0------

a----2------0------------------0---
---2-------0--------------------0---

d------------------5-----0---------
-------------------5-----0----------


Chorus
e----------------------------------------
-------------------------------

b----------------------------------------
-----------------3--2---2--0---

g----0------4--2-------------------------
---0------4--2-----------------

d-------4----------4---------4h5--4------
------4------------------------

a-----------2---------0--------------0---
----------2------5------4------

d----5-------------------0---------------
---5---------------------------


e-------------------------------
---2--3---------

b-----------------3--2---2--0---
---------2--3---

g---0------4--2-----------------
----------------

d------4------------------------
----------------

a----------2------5------4------
---5-----2------

d---5---------------------------
----------------


e----------------------------------------

b----------------------------------------

g----0------4--2-------------------------

d-------4----------4---------4h5--4------

a-----------2---------0--------------0---

d----5-------------------0---------------


e----------------------------------------
----------------------------------------

b----------------------------------------
----------------------------------------

g----0------4--2-------------------------
----0------4--2-------------------------

d-------4----------4---------4h5--4------
-------4----------4---------4h5--4------

a-----------2---------0--------------0---
-----------2---------0--------------0---

d----5-------------------0---------------
----5-------------------0---------------


e-------------------------

b-------------------------

g-------------------------

d---4/5--4----------------

a-----------0--/4--5--0---

d-------------------------


Verse
e----------------------------------
------------------------------------

b----3--2---2--0-------------------
---3--2---/5--3----------5----------

g------------------4--2------------
------------------/4--2-------------

d------------------------0--0------
-----------------------------0------

a----2------0------------------0---
---2-------0--------------------0---

d------------------5-----0---------
-------------------5-----0----------


Chorus
e----------------------------------------
-------------------------------

b----------------------------------------
-----------------3--2---2--0---

g----0------4--2-------------------------
---0------4--2-----------------

d-------4----------4---------4h5--4------
------4------------------------

a-----------2---------0--------------0---
----------2------5------4------

d----5-------------------0---------------
---5---------------------------


e-------------------------------
---2--3---------

b-----------------3--2---2--0---
---------2--3---

g---0------4--2-----------------
----------------

d------4------------------------
----------------

a----------2------5------4------
---5-----2------

d---5---------------------------
----------------


e----------------------------------------

b----------------------------------------

g----0------4--2-------------------------

d-------4----------4---------4h5--4------

a-----------2---------0--------------0---

d----5-------------------0---------------


e-----------------------------------------
----------------------------------------

b-----------------------------------------
----------------------------------------

g----0------4--2--------------------------
----0------4--2-------------------------

d-------4----------4---------4h5--/7------
-------4----------4---------4h5--4------

a-----------2---------0---------------0---
-----------2---------0--------------0---

d----5-------------------0----------------
----5-------------------0---------------


e----------------------------------------
----------------------------------------

b----------------------------------------
----------------------------------------

g----0------4--2-------------------------
----0------4--2-------------------------

d-------4----------4---------4h5--4------
-------4----------4---------4h5--/7-----

a-----------2---------0--------------0---
-----------2---------0--------------0---

d----5-------------------0---------------
----5-------------------0---------------


e----------------------------------------
----------------------------------------

b----------------------------------------
----------------------------------------

g----0------4--2-------------------------
----0------4--2-------------------------

d-------4----------4---------4h5--4------
-------4----------4---------4h5--4------

a-----------2---------0--------------0---
-----------2---------0--------------0---

d----5-------------------0---------------
----5-------------------0---------------

                                           really quiet
e-----------------------------------------
----------------------------

b-----------------------------------------
----------------------------

g----0------4--2--------------------------
----0------4--2-------------

d-------4----------4---------4h5--/7------
-------4----------4---------

a-----------2---------0---------------0---
-----------2---------0------

d----5-------------------0----------------
----5-------------------0---


e----------------------------

b----------------------------

g----------------------------

d---4/5--4---------------0---

a-----------0--/4--5--0------

d----------------------------



Near the End A 2nd Guitar plays this on a loop
e--------------

b---7h8--7-----

g----------7---

d--------------

a--------------

d--------------



Even Closer to the End a 3rd guitar plays this on a loop
e---14h15--14-------

b--------------15---

g-------------------

d-------------------

a-------------------

d-------------------


And thas all please comments
 


/
How To Set Up Higher Praise As Your Home Page
Copyright 1999, Higher Praise HigherPraise,Inc. All rights reserved. Terms of Use

Enjoy A Life Changing Experience

 
 
 
HigherPraise, Higher Praise, HigherPraise, Higher Praise, HigherPraise

Members..Sign Up. LogIn

 
 

Higher Praise Other Sites
 
 

HigherPraise.org/
Praise And Worship
www.higherpraise.org

HigherPraise.net
Christian Resources
www.higherpraise.net

HigherPraiseTube.com
Videos And Audios
www.higherpraisetube.com.


ChristianLyrics.org

Lyrics And Chrords
www.christianlyrics.org

ChristianChordsLyrics

Lyrics And Chrords
www.christianchordslyrics.com

ChristianChordLyrics

Lyrics And Chrords
www.christianchordlyrics.com

WorshipLyrics.org
10.000 Illustrations
www.worshiplyrics.org

WorshipLyrics.net
10.000 Illustrations
www.worshiplyrics.net

PraiseLyrics.com
PowerPoint Lyrics

www.praiselyrics.com

PraiseLyrics.org
PowerPoint Lyrics

www.praiselyrics.org

1GodTube.com
Chistian Videos

www1godtube..com

OneGodTube.com
Chistian Videos

www.onegodtube..com

 

/
© Copyright 1999 - 2019, Higher Praise™ HigherPraise™,Inc. All rights reserved. Terms of Use