Higher Praise - Guitar Chords, Lyrics  GuitarTabs -  Praise nad Worship Music And Christian Songs

Higher Praise - Guitar Tabs, Guitar Chords, Lyrics
   Lyrics, Chords And Tabs
   Popular Lyrics Chords Tab
   Power Point Lyrics
   Praise & Worship Music
   Christian Music Videos
   15900 Videos & Audios
   Midi Files
   Worship Questions
   Christmas Chords, Lyrics
   Lyrics, Chords Tabs Rated

Sermon Outlines And Audio Sermons
   9344 Sermon Outlines
   N.T. Sermon Outlines
   O.T. Sermon Outlines
   Special Guest Outlines
   10.000 Illustrations
   Sunday School Studies
   Bible College Studies
   Greatest Preachers
   Bible Research Tools
Audio Sermons
   2895 Audio Sermons
   85 Sermon Videos
   291 Special Guests Serm

   Complete Audio Bible
Higher Praise Sunday School Teaching
   Children's NT Studies
   Children's OT Studies

   98 Children's Midis
   Gospel For Kids Movie
   Children's JESUS Film
Higher Praise Christian Video Library ,Videos
   Christian Television
   TBN TV Live
   15,000 Videos - HP Tube
   712 Youth Music Vids
  Christian Video Library
   Praise Videos #1 & #2
   85 Sermon Videos
   Prophecy Film -Videos
   JESUS Film -Video
   Childrens JESUS Film
   Gospel For Kids Movie
   Passion Of The Christ
   Noah, Sodom, Sinai, Ark
   Tsunami Videos Photos
News And Information
   Testimonies
   Submit Lyrics, Tabs, Serm
   10.000 Illustrations
   Bible College Course
   Clipart & Web Graphics
   Greatest Preachers
   Complete Talking Bible
   Christian Chat Rooms
   Links Church Resource
   HP Statement Of Faith
Download Clipart
   Audio Sermons
   Clipart & Web Graphics
   Church Administration
   Bible Study Software
   Screen Savers Software
   Verse A Day Software
   Educational Games
   Trade Center Photos

   Soft. Search Engine
Higher Praise News
   Current News
    Archived News
   Submit News
   Newsletter   Higher Praise Interact Prayer
   Prayer For All Needs
   
Submit Lyrics, Sermons
   
Contact Higher Praise
   
Advertising 
   Privacy Policy
//
He Died For You,  Click For Answer! This Is Who Jesus Is Video

'
 
0-9 A B C D E F G H I J K L M N O P Q R S T U V W X Y Z
.

//
Click For Printable...Version Of This File
 

Stand Here With Me


by Creed




Song: Stand Here With Me
Artist: Creed


Tuning: ***OPEN D*** DADF#AD
this song has been tabbed, and probably pretty well played, in many different
tunings, but if you want to get the right feeling & the right chords without
trouble then this is the way you want to play it. Whole solo & all!

Intro:
Part A                                   
D 
-----------------------------------------------------------------------

A 
-----------------------------------------------------------------------

F#
---------------------------------12~--0~-----------12----12h13---13-12-

D 
----11h12---11h12---12h14-11h12-------------12-------------------12-12-

A 
-0--------0-------0---------------------10------10-----10-----10----10-

D 
-----------------------------------------------------------------------

    *Let A string ring throughout*       ^ let ring

Part B
D 
---0----------------------0------------------------------------------

A 
---0----------------------0------------------------------------------

F#
---0----------------7-8---0------------------7-8\10------------------

D 
-------------7-7\9--------------------7-7\9--------------------------

A 
-------0-4h5--------------------0-4h5--------------------------------

D 
----0------------------------0---------------------------------------

         *some stuff starts playing backwards in the background*

Distortion kicks in
Part C
D 
-----------------------------------------------------------------------

A 
-----------------------------------------------------------------------

F#
---------------------------------12~--0------------12----13bfr-13-12---

D 
----11h12---11h12---12h14-11h12-------------12----------------------12-

A 
-0--------0-------0---------------------10------10----10---------------

D 
-----------------------------------------------------------------------


Part D
D 
-------------------------0-0--------------------------0-0--

A 
-------------------------0-0--------------------------0-0--

F#
-----------------7-8bfr--0-0-----------------7-8\10~--0-0--

D 
--0--------7-7\9--------------0--------7-7\9---------------

A 
--0--0-4h5--------------------0--0-4h5---------------------

D 
--0---------------------------0----------------------------


repeat until chorus, going back & forth between A & C (always play the
corresponding second phrase, i.e. B after A & D after C)

Last time:
D 
-------------------------0-0-------------------------------

A 
-------------------------0-0-------------------------------

F#
-----------------7-8-----0-0-----------------7-8bfr--------

D 
--0--------7-7\9--------------0--------7-7\9-----------0---

A 
--0--0-4h5--------------------0--0-4h5-----------------0---

D 
--0---------------------------0------------------------0---



Chorus:
D 
-------------------------------------------------------
---------------

A 
-------------------------------------------------------
---------------

F#
---6--6-6-6-6--6-6-6---5-----4--4-4--------------------
---------------

D 
---5--5-5-5-5--5-5-5-0-5--0--3--3-3-0-3--3-3-0-3-5-5-5-
--0-0-0---0-0--

A 
---3--3-3-3-3--3-3-3-0-2--0--2--2-2-0-3--3-3-0-3-5-5-5-
--0-0-3h5-0-0--

D 
-----------------------------------------3-3-0-3-5-5-5-
--0-0-0---0-0--


D 
-----------------------------------

A 
-----------------------------------

F#
-----------------------------------
 repeat whole chorus 2x
D 
--0--0-0-----0-0--0--0------0-0-0--

A 
--0--0-0-3h5-0-0--0--0-3h5--0-0-0--

D 
--0--0-0-----0-0--0--0------0-0-0--



Second time:
D 
------------

A 
------------

F#
------------

D 
------------

A 
-----3b^--0-

D 
--5---------


repeat verses as the first, varying the same way
repeat chorus, adding slides before entrances (listen to the song for timing)

Solo: (at beginning, deep whammy bar bends by 2nd guitar, which Scott Stapp plays
in concert, believe it or not)
D 
---------------------------------------------------

A 
------------------------------10-10----------------

F#
--------------10-------8~-----10-10h11-------------

D 
--------------9b^--9-------------------12~---------

A 
----------------------------0----------------17/---

D 
---------------------------------------------17/---


----------------------------------------------------

--5-7-5h7p5---5-------------------------------------

------------6---6-3---------------------------------

--------------------5--5-4p0-5-4p0-5-4p0-5-4p0------

----------------------------------------------------

-------------------------------------------------0--


---16bf----17bfr----16~---15------------------------

-----------------------------17-19----17------------

-----------------------------------18----18bf-18r---

----------------------------------------------------

----------------------------------------------------

----------------------------------------------------


---------------------------------------------------

--7-8-10p8p7-8-------------------------------------

---------------8-10----8~-----8-11-8----8~---------

--------------------10-----10--------10------------

---------------------------------------------------

-------------------------------------------15/--0--


16-14-16------16-14-16-17---16-14-16-17-16-14-16----

---------17~-------------------------------------17~

----------------------------------------------------

----------------------------------------------------

----------------------------------------------------

----------------------------------------------------


--16-14-16-17---16-14-16-17-16-14-16------

-------------------------------------17~--

------------------------------------------

------------------------------------------

------------------------------------------

------------------------------------------



--16-14-16-17---16-14-16-17-16-14-16-

-------------------------------------

-------------------------------------

-------------------------------------

-------------------------------------

-------------------------------------


-19p16--16-19p16--16-19p16--16-19p16--16-

------17--------17--------17--------17---

-----------------------------------------

-----------------------------------------

-----------------------------------------

-----------------------------------------


-21p16--16-19p16--16-21p16--16-19p16--16-

------17--------17--------17--------17---

-----------------------------------------

-----------------------------------------

-----------------------------------------

-----------------------------------------



*keep bent on re-attacks,
and release a half-steps
worth on last note*

--19bf-19b-19b-19r~---------

----------------------------

----------------------------

----------------------------

----------------------------

----------------------17/---



This is the ending part, just repeat these 2 sections several times, eventually
it fades & drops out to the vocals

D 
---------------------------0-0-

A 
---------------------------0-0-

F#
-------------------7-8bfr--0-0-

D 
--0---------7-7\9--------------

A 
--0--0-4h5---------------------

D 
--0----------------------------


D 
-----------------------------------------------------------------------

A 
-----------------------------------------------------------------------

F#
---------------------------------12~--0------------12----13bfr-13-12---

D 
----11h12---11h12---12h14-11h12-------------12----------------------12-

A 
-0--------0-------0---------------------10------10----10---------------

D 
-----------------------------------------------------------------------


thats everything, i know some of it might be confusing so email me with any questions at:


- or -


Nick Whittenburg



***Key***

h   - hammer-on
\   - slide
/   - slide down
b^  - bend up
bf  - bend full
bfr - bend full & return
~   - vibrato
 


/
How To Set Up Higher Praise As Your Home Page
Copyright 1999, Higher Praise HigherPraise,Inc. All rights reserved. Terms of Use

Enjoy A Life Changing Experience

 
 
 
HigherPraise, Higher Praise, HigherPraise, Higher Praise, HigherPraise

Members..Sign Up. LogIn

 
 

Higher Praise Other Sites
 
 

HigherPraise.org/
Praise And Worship
www.higherpraise.org

HigherPraise.net
Christian Resources
www.higherpraise.net

HigherPraiseTube.com
Videos And Audios
www.higherpraisetube.com.


ChristianLyrics.org

Lyrics And Chrords
www.christianlyrics.org

ChristianChordsLyrics

Lyrics And Chrords
www.christianchordslyrics.com

ChristianChordLyrics

Lyrics And Chrords
www.christianchordlyrics.com

WorshipLyrics.org
10.000 Illustrations
www.worshiplyrics.org

WorshipLyrics.net
10.000 Illustrations
www.worshiplyrics.net

PraiseLyrics.com
PowerPoint Lyrics

www.praiselyrics.com

PraiseLyrics.org
PowerPoint Lyrics

www.praiselyrics.org

1GodTube.com
Chistian Videos

www1godtube..com

OneGodTube.com
Chistian Videos

www.onegodtube..com

 

/
Copyright 1999 - 2019, Higher Praise™ HigherPraise™,Inc. All rights reserved. Terms of Use