Higher Praise - Guitar Chords, Lyrics  GuitarTabs -  Praise nad Worship Music And Christian Songs

Higher Praise - Guitar Tabs, Guitar Chords, Lyrics
   Lyrics, Chords And Tabs
   Popular Lyrics Chords Tab
   Power Point Lyrics
   Praise & Worship Music
   Christian Music Videos
   15900 Videos & Audios
   Midi Files
   Worship Questions
   Christmas Chords, Lyrics
   Lyrics, Chords Tabs Rated

Sermon Outlines And Audio Sermons
   9344 Sermon Outlines
   N.T. Sermon Outlines
   O.T. Sermon Outlines
   Special Guest Outlines
   10.000 Illustrations
   Sunday School Studies
   Bible College Studies
   Greatest Preachers
   Bible Research Tools
Audio Sermons
   2895 Audio Sermons
   85 Sermon Videos
   291 Special Guests Serm

   Complete Audio Bible
Higher Praise Sunday School Teaching
   Children's NT Studies
   Children's OT Studies

   98 Children's Midis
   Gospel For Kids Movie
   Children's JESUS Film
Higher Praise Christian Video Library ,Videos
   Christian Television
   TBN TV Live
   15,000 Videos - HP Tube
   712 Youth Music Vids
  Christian Video Library
   Praise Videos #1 & #2
   85 Sermon Videos
   Prophecy Film -Videos
   JESUS Film -Video
   Childrens JESUS Film
   Gospel For Kids Movie
   Passion Of The Christ
   Noah, Sodom, Sinai, Ark
   Tsunami Videos Photos
News And Information
   Testimonies
   Submit Lyrics, Tabs, Serm
   10.000 Illustrations
   Bible College Course
   Clipart & Web Graphics
   Greatest Preachers
   Complete Talking Bible
   Christian Chat Rooms
   Links Church Resource
   HP Statement Of Faith
Download Clipart
   Audio Sermons
   Clipart & Web Graphics
   Church Administration
   Bible Study Software
   Screen Savers Software
   Verse A Day Software
   Educational Games
   Trade Center Photos

   Soft. Search Engine
Higher Praise News
   Current News
    Archived News
   Submit News
   Newsletter   Higher Praise Interact Prayer
   Prayer For All Needs
   
Submit Lyrics, Sermons
   
Contact Higher Praise
   
Advertising 
   Privacy Policy
//
He Died For You,  Click For Answer! This Is Who Jesus Is Video

'
 
0-9 A B C D E F G H I J K L M N O P Q R S T U V W X Y Z
.

//
Click For Printable...Version Of This File
 

False Idols Fall


by Comeback Kid




FALSE IDOLS FALL
COMEBACK KID
WAKE THE DEAD


Tuning: Drop Db (Db Ab Db Gb Bb eb)
Notes: I tried to get both guitar parts but the lead is so loud in this song it's 
to find the rythym, which im sure is there. mostly the two guitars play similar things though. 
a start anyway, seems as noone else had tried it yet.

Long intro followed by drums kicking in.
(pick slide, then:)
eb
------------------------------

Bb
------------------------------

Gb
--44>---444>---555>---222>----

Db
--22>---222>---555>---222>----

Ab
--22>---222>---333>---000>----

Db
--22>---222>------------------
 x2

im not sure if theres a subtle rythym for this bit, because the lead is so prominent, 
if there is i think these chords work (it might just be the bassline)
eb
------------------------------------------

Bb
------------------------------------------

Gb
--55555555------------99999999--77777777--

Db
--55555555--00000000--99999999--77777777--

Ab
--33333333--00000000--77777777--55555555--

Db
------------00000000----------------------


"your time is up"
eb
----------------------------------------

Bb
----------------------------------------

Gb
--12121212\11111111/12121212\11111111---

Db
--x-x-x-x-\x-x-x-x-/x-x-x-x-\x-x-x-x----

Ab
--10101010\9-9-9-9-/10101010\9-9-9-9----

Db
----------------------------------------


"going over every false thing you say"
eb
----------------------------------------

Bb
----------------------------------------

Gb
--16161616\12121212\7-7-7-7/16161616----

Db
--x-x-x-x-\x-x-x-x-\x-x-x-x/x-x-x-x-----

Ab
--14141414\10101010\5-5-5-5/14141414----

Db
----------------------------------------


"wish it could be different"
eb
----------------------------------------

Bb
----------------------------------------

Gb
--11111111/12121212\11111111\7-7-7-7----

Db
--x-x-x-x-/x-x-x-x-\x-x-x-x-\x-x-x-x----

Ab
--9-9-9-9-/10101010\9-9-9-9-\5-5-5-5----

Db
----------------------------------------


"tearing down our idols"
eb
----------------------------------------

Bb
----------------------------------------

Gb
--16161616\14141414\12121212\11111111---

Db
--x-x-x-x-\x-x-x-x-\x-x-x-x-\x-x-x-x----

Ab
--14141414\12121212\10101010\9-9-9-9----

Db
----------------------------------------



eb
----------------------------------------

Bb
----------------------------------------

Gb
--12121212\11111111/12121212\11111111---

Db
--x-x-x-x-\x-x-x-x-/x-x-x-x-\x-x-x-x----

Ab
--10101010\9-9-9-9-/10101010\9-9-9-9----

Db
----------------------------------------


"all my heroes are dead" part
eb
-------------------------------------------------------------------

Bb
-------------------------------------------------------------------

Gb
--9-9-9\-------------9-9-9\-------------9-9-555555555-5555555\444--

Db
--9-9-9\-------------9-9-9\-------------9-9-555555555-xxxxxxx\xxx--

Ab
--7-7-7\--222222222--7-7-7\--222222222--7-7-333333333-3333333\222--

Db
----------222222222----------222222222-----------------------------
 x2
             .........          .........

"were we too blind to see..."
eb
---------------------------------------

Bb
---------------------------------------

Gb
--11111111/1212121212121212\11111111---

Db
--x-x-x-x-/x-x-x-x-x-x-x-x-\x-x-x-x----

Ab
--9-9-9-9-/1010101010101010\9-9-9-9----

Db
---------------------------------------


"can't help but feel..."
eb
----------------------------------------

Bb
----------------------------------------

Gb
--16161616\12121212\7-7-7-7/16161616----

Db
--x-x-x-x-\x-x-x-x-\x-x-x-x/x-x-x-x-----

Ab
--14141414\10101010\5-5-5-5/14141414----

Db
----------------------------------------


eb
----------------------------------------

Bb
----------------------------------------

Gb
--11111111/12121212\11111111\7-7-7-7----

Db
--x-x-x-x-/x-x-x-x-\x-x-x-x-\x-x-x-x----

Ab
--9-9-9-9-/10101010\9-9-9-9-\5-5-5-5----

Db
----------------------------------------


"they build you up to watch you fall" part
guitar one
eb
----------------------------------------

Bb
----------------------------------------

Gb
----------------------------------------

Db
--99-999-977-777-71010-101010-1099-999--

Ab
--77-777-777-777-7-7-7-7-7-7--7-77-777--

Db
----------------------------------------


eb
----------------------------------------

Bb
----------------------------------------

Gb
----------------------------------------

Db
--99-999-977-777-71010-101010-1099-999--

Ab
--55-555-555-555-55-5--5-5-5--5-55-555--

Db
----------------------------------------


guitar two comes in with this at the end of each of those lines

eb
-----

Bb
-----

Gb
--9--

Db
--9--

Ab
--7--

Db
-----

     .

then the "can't you see?" part
guitar one
eb
--------------------------------------------------------------

Bb
--------------------------------------------------------------

Gb
--12121212\11111111\9-9-9-9\7-7-7-7/9-9-9-9/11111111\9-9-9-9--

Db
--x-x-x-x-\x-x-x-x-\x-x-x-x\x-x-x-x/x-x-x-x/x-x-x-x-\x-x-x-x--

Ab
--10101010\9-9-9-9-\7-7-7-7\5-5-5-5/7-7-7-7/9-9-9-9-\7-7-7-7--

Db
--------------------------------------------------------------


guitar two
eb
-------------------------------------------------------------

Bb
-------------------------------------------------------------

Gb
--5555555555555555555555555555-------------------------------

Db
--5555555555555555555555555555--222222222222222222222--2-2>--

Ab
--3333333333333333333333333333--222222222222222222222--2-2>--

Db
--------------------------------222222222222000000000--2-2>--


"when did we lose control?"
guitar one (during this bit guitar two adds the same chord and lets it ring out - listen 
the track, you cant miss it)
eb
--------------------------------

Bb
--------------------------------

Gb
--------------------------------

Db
--2222222222222222222222222222--

Ab
--2222222222222222222222222222--

Db
--2222222222222222222222222222--
x3
     ............................

"...forever!"
eb
---------------------------------------------------

Bb
---------------------------------------------------

Gb
-------------------------------55555555--22222222--

Db
--5-5--5/7\22222222--55555555--55555555--22222222--

Ab
--5-5--5/7\22222222--55555555--33333333--00000000--

Db
--5-5--5/7\22222222--55555555----------------------


keep those last 4 chords going until the end of the song, whilst the lead does this over 
top, coming in on the 3rd time through those chords:

eb
------------------------------------

Bb
------------------------------------

Gb
--555\44/99999999/11/12\9/17171717--

Db
--xxx\xx/xxxxxxxx/x-/x-\x/x-x-x-x---

Ab
--333\22/77777777/9-/10\7/15151515--

Db
------------------------------------


then just plays this til the end
eb
-----------------

Bb
-----------------

Gb
--12\9/17171717--

Db
--x-\x/x-x-x-x---

Ab
--10\7/15151515--

Db
-----------------


then finally (both guitars i think)
eb
---------------

Bb
---------------

Gb
---------------

Db
--2-2-2-2-22>--

Ab
--2-2-2-2-22>--

Db
--2-2-2-2-22>--

 


/
How To Set Up Higher Praise As Your Home Page
Copyright 1999, Higher Praise HigherPraise,Inc. All rights reserved. Terms of Use

Enjoy A Life Changing Experience

 
 
 
HigherPraise, Higher Praise, HigherPraise, Higher Praise, HigherPraise

Members..Sign Up. LogIn

 
 

Higher Praise Other Sites
 
 

HigherPraise.org/
Praise And Worship
www.higherpraise.org

HigherPraise.net
Christian Resources
www.higherpraise.net

HigherPraiseTube.com
Videos And Audios
www.higherpraisetube.com.


ChristianLyrics.org

Lyrics And Chrords
www.christianlyrics.org

ChristianChordsLyrics

Lyrics And Chrords
www.christianchordslyrics.com

ChristianChordLyrics

Lyrics And Chrords
www.christianchordlyrics.com

WorshipLyrics.org
10.000 Illustrations
www.worshiplyrics.org

WorshipLyrics.net
10.000 Illustrations
www.worshiplyrics.net

PraiseLyrics.com
PowerPoint Lyrics

www.praiselyrics.com

PraiseLyrics.org
PowerPoint Lyrics

www.praiselyrics.org

1GodTube.com
Chistian Videos

www1godtube..com

OneGodTube.com
Chistian Videos

www.onegodtube..com

 

/
Copyright 1999 - 2019, Higher Praise™ HigherPraise™,Inc. All rights reserved. Terms of Use