Higher Praise - Guitar Chords, Lyrics  GuitarTabs -  Praise nad Worship Music And Christian Songs

Higher Praise - Guitar Tabs, Guitar Chords, Lyrics
   Lyrics, Chords And Tabs
   Popular Lyrics Chords Tab
   Power Point Lyrics
   Praise & Worship Music
   Christian Music Videos
   15900 Videos & Audios
   Midi Files
   Worship Questions
   Christmas Chords, Lyrics
   Lyrics, Chords Tabs Rated

Sermon Outlines And Audio Sermons
   9344 Sermon Outlines
   N.T. Sermon Outlines
   O.T. Sermon Outlines
   Special Guest Outlines
   10.000 Illustrations
   Sunday School Studies
   Bible College Studies
   Greatest Preachers
   Bible Research Tools
Audio Sermons
   2895 Audio Sermons
   85 Sermon Videos
   291 Special Guests Serm

   Complete Audio Bible
Higher Praise Sunday School Teaching
   Children's NT Studies
   Children's OT Studies

   98 Children's Midis
   Gospel For Kids Movie
   Children's JESUS Film
Higher Praise Christian Video Library ,Videos
   Christian Television
   TBN TV Live
   15,000 Videos - HP Tube
   712 Youth Music Vids
  Christian Video Library
   Praise Videos #1 & #2
   85 Sermon Videos
   Prophecy Film -Videos
   JESUS Film -Video
   Childrens JESUS Film
   Gospel For Kids Movie
   Passion Of The Christ
   Noah, Sodom, Sinai, Ark
   Tsunami Videos Photos
News And Information
   Testimonies
   Submit Lyrics, Tabs, Serm
   10.000 Illustrations
   Bible College Course
   Clipart & Web Graphics
   Greatest Preachers
   Complete Talking Bible
   Christian Chat Rooms
   Links Church Resource
   HP Statement Of Faith
Download Clipart
   Audio Sermons
   Clipart & Web Graphics
   Church Administration
   Bible Study Software
   Screen Savers Software
   Verse A Day Software
   Educational Games
   Trade Center Photos

   Soft. Search Engine
Higher Praise News
   Current News
    Archived News
   Submit News
   Newsletter   Higher Praise Interact Prayer
   Prayer For All Needs
   
Submit Lyrics, Sermons
   
Contact Higher Praise
   
Advertising 
   Privacy Policy
//
He Died For You,  Click For Answer! This Is Who Jesus Is Video

'
 
0-9 A B C D E F G H I J K L M N O P Q R S T U V W X Y Z
.

//
Click For Printable...Version Of This File
 

Let Us Go Laughing


by Bruce Cockburn




#-----------------------------PLEASE NOTE-------------------------------------#
#This OLGA file is the author's own work and represents their interpretation  #
#of the song. You may only use this file for private study, scholarship, or   #
#research. Remember to view this file in Courier, or other monospaced font.   #

#-----------------------------------------------------------------------------#

Subject: c/cockburn_bruce/let_us_go_laughing.tab
[this looks like a john kean tab, but i'm not sure - archivist]

 Let Us Go Laughing  - Bruce Cockburn
 ~~~~~~~~~~~~~~~~~~
 From "High Winds White Sky".



 Guitar #1 - drop-D tuning and all strings down one semitone
  (Db,Ab,Db,Gb,Bb,Eb);
 Guitar #2 - standard tuning and capo 4th fret.

 Slow 4/4 time (mostly).


            ,  .  ,  .  ,  .  ,  .         ,  .  ,  .  ,  .  ,   .
        
-------------------------------
---------------------------

        
--------3--------3-------------
----3-----3-----3----------

 Guitar 
-----2-----------2-------------
----0-----0-----0----------

   #1   
--4--------4--------4--2h4p2p0-
-2-----2---------------0---

        
-------------------------------
-0--------0--0-----0h2---2-

        
--0-----------0----------------
---------------------------



   ,   .   ,   .   ,   .   ,   .     ,   .   ,   .   ,   .   ,   .
 
---------------------0-----------
--------------------------------

 
-------------3-----------3-------
-----3-------3-----------3------

 
---------2---2-----------2---2---
-0-----------0-----------0------

 
-------4---4---------4-------4---
-5-------2-----------2----------

 
-----0---------------------------
-0---------------0-----------0--

 
-0---------------0---------------
--------------------------------

                                                              My

    ,   .   ,   .   ,   .   ,   .    ,   .   ,   .   ,   .   ,   .
 
--------------------------------
---------------------------------

 
---------3-----------3-------3--
---------3-------3---3-----------

 
---------2-----------2-------2--
---------0-------0---0-----------

 
-----4-----------4-----------4--
-----2---------2-------------0---

 
--------------------------------
-0-----------0-----------0h2---2-

 
-0-----------0-----------0------
---------------------------------

    canoe       lies   on   the      water

   ,   .   ,   .   ,   .   ,   .     ,   .   ,   .   ,   .   ,   .
 
---------------------------------
---------------------------------

 
-------------3-----------3-------
---------3---------------3-------

 
---------2---2-----------2-------
---------0---------------0-------

 
-------4---4---------4-------4---
-----2-------2-------2-------2---

 
-----0---------------------------
-0---------------0---------------

 
-0---------------0---------------
---------------------------------

                       Evening       holds             the bones of

   ,   .   ,   .   ,   .   ,  .       ,   .   ,   .   ,   .   ,   .
 
----------------------------------
--------------------------------

 
---------3-----------3------------
-----3-------3-----------3------

 
---------2-----------2------------
-----0-------0-----------0------

 
-----4-------4-----------4--4p2p0-
-2-----------2-------2-------2--

 
----------------------------------
-0-------0-------0--------------

 
-0---------------0----------------
--------------------------------

   day                                                        The

   ,   .   ,   .   ,   .   ,   .     ,   .   ,   .   ,   .   ,   .
 
-----------3---------------------
-----------------3---------------

 
---------1---1---------------1---
-------------3-------3-----------

 
-------0---------0-------0-------
---------0---------------0-------

 
-----3---------------3-----------
-----2-----------2-----------2---

 
---------------------------------
---------------------------------

 
-3-----------3-------------------
-2-----------2-------------------

   sun                     like      gold  dust              slips

   ,   .   ,   .   ,   .   ,   .     ,   .   ,   .   ,   .   ,   .
 
---------0-------------0---------
-------------------------0------

 
-----------------3-------1p0-----
---------1---1---1-----------1--

 
---------------------------------
-2-------------------2----------

 
-----2-------2-------2-------2---
-----2-----------2-------2------

 
-0-------0-------0-------0-------
-0-----------0-------0----------

 
---------------------------------
--------------------------------

   away

    ,   .   ,   .   ,   .   ,   .    ,   .   ,   .   ,   .   ,   .
 
--------------------------------
---------------------------------

 
-3-----------3-----------3------
---------3-------3---3-----------

 
-2---2-------------------2------
---------0-------0---0-----------

 
-4-------4-----------4----------
-----2---------2-------------0---

 
--------------------------------
-0-----------0-----------0h2---2-

 
-0---------------0-----------0--
---------------------------------

    One  by  one                     antique  stars

   ,   .   ,   .   ,   .   ,   .     ,   .   ,   .   ,   .   ,   .
 
---------------------------------
---------------------------------

 
-------------3-----------3-------
---------3---------------3-------

 
---------2---2-----------2-------
---------0---------------0-------

 
-------4---4---------4-------4---
-----2-------2-------2-------2---

 
-----0---------------------------
-0---------------0---------------

 
-0---------------0---------------
---------------------------------

                       herald  the   arrival  of

   ,   .   ,   .   ,   .   ,  .       ,   .   ,   .   ,   .   ,   .
 
----------------------------------
--------------------------------

 
---------3-----------3------------
-----3-------3-----------3------

 
---------2-----------2------------
-----0-------0-----------0------

 
-----4-------4-----------4--4p2p0-
-2-----------2-------2-------2--

 
----------------------------------
-0-------0-------0--------------

 
-0---------------0----------------
--------------------------------

                                                              their

   ,   .   ,   .   ,   .   ,   .     ,   .   ,   .   ,   .   ,   .
 
-----------3---------------------
-----------3---------------------

 
---------1---1---------------1---
---------3---3-------------------

 
-------0---------0-------0-------
-------0---------0-------0-------

 
-----3---------------3-----------
-----2---------------2-------2---

 
---------------------------------
---------------------------------

 
-3-----------3-------------------
-2-----------2-------------------

   pale                    protectress

   ,   .   ,   .   ,   .   ,   .     ,   .   ,   .   ,   .   ,   .
 
---------------------------------
--------------------------------

 
---------3-------3-------3-------
---------3-------3-------3------

 
---------0h2-----2-------2-------
---------0h2-----4p2-----2------

 
-----0-------0-------0-------0---
-----0-------0-------0-------0--

 
---------------------------------
--------------------------------

 
-0-------------------------------
-0------------------------------

   moon

           ,  .  ,  .  ,  .  ,  .     ,   .   ,   .   ,   .   ,   .
        
-------------------------
---------------------------------

        
-------3--------3--------
----------3-------3---3----------

 Guitar 
----2-----------2-----2--
----------0-------0---0----------

   #1   
-4--------4--------4-----
------2---------2-------------0--

        
-------------------------
--0-----------0-----------0h2----

        
-0-----------0-----------
---------------------------------

        :: Ragged   branches       :  vibrate                        :
        ::                         :                                 :
        :: ,  .  ,  .  ,  .  ,  .  :  ,   .   ,   .   ,   .   ,   .  :
        
-------------------------
---------------------------------

        
-------------------------
---------------------------------

 Guitar 
-------------------------
---------------------------------

   #2   
-------------------------
-H4--------------H5--------------

        
-------------------------
---------------------------------

        
-------------------------
---------------------------------



    ,   .   ,   .   ,   .   ,   .     ,   .   ,   .   ,   .   ,   .
 
---------------------------------
--------------2---0--------------

 
--------------3-----------3------
----------3-------------------3--

 
----------2---2-----------2------
----------0-------0-----------0--

 
--------4---4---------4-------4--
------2-------2-----------2------

 
------0--------------------------
--0-------------------0----------

 
--0---------------0--------------
---------------------------------

 :                    Strummed  by : winds           from  over  the :
 :                                 :                                 :
 :  ,   .   ,   .   ,   .   ,   .  :  ,   .   ,   .   ,   .   ,   .  :
 
---------------------------------
---------------------------------

 
---------------------------------
---------------------------------

 
---------------------------------
---------------------------------

 
---------------------------------
-H3--------------H4--------------

 
-H4------------------------------
---------------------------------

 
---------------------------------
---------------------------------



    ,  .  ,  .  ,  .  ,  .          ,   .   ,   .   ,   .   ,   .
 
-------------------------------
-----------------------------------

 
--------3--------3-------------
------3-------3-----------3--------

 
--------2--------2-------------
------0-------0-----------0-----0--

 
-----4-----4--------4--2h4p2p0-
--2-----------2-------2-------2----

 
-------------------------------
--0-------0-------0----------------

 
--0-----------0----------------
-----------------------------------

 :  hill                         :                                   :
 :                               :                                   :
 :  ,  .  ,  .  ,  .  ,  .       :  ,   .   ,   .   ,   .   ,   .    :
 
-------------------------------
-----------------------------------

 
-------------------------------
-----------------------------------

 
-------------------------------
-----------------------------------

 
-------------------------------
-H4--------------H5----------------

 
-H3----------------------------
-----------------------------------

 
-------------------------------
-----------------------------------



   ,   .   ,   .   ,   .   ,   .     ,   .   ,   .   ,   .   ,   .
 
-----------3---------------------
-----------3---------------------

 
---------1---1---------------1---
---------3---3-------------------

 
-------0---------0-------0-------
-------0---------0-------0-------

 
-----3---------------3-----------
-----2---------------2-------2---

 
---------------------------------
---------------------------------

 
-3-----------3-------------------
-2-----------2-------------------

 :       Singing                   : tales              of  ancient  :
 :                                 :                                 :
 :  ,   .   ,   .   ,   .   ,   .  : ,   .   ,   .   ,   .   ,   .   :
 
-----------------0---------------
-----------------0---------------

 
-------------0-------------------
---------0-----------------------

 
--------------2------------------
-----------2---------------------

 
---------------0-----------------
-------------0-------------------

 
----------------3----------------
---------------------------------

 
---------------------------------
-------------------------0-------



   ,   .   ,   .   ,   .   ,   .     ,   .   ,   .   ,   .   ,   .
 
-------------------------------0-
-----------------0--------------

 
---------1-------3-------1h3-----
-1p0-----1---------------1------

 
-----2-------2-------------------
----2--------2-------2----------

 
---------------------2-------2---
-----2-------2-------2-------2--

 
-0-------0-------0-------0-------
-0-------0-------0-------0------

 
---------------------------------
--------------------------------

 : days                            :                                ::
 :                                 :                                ::
 : ,   .   ,   .   ,   .   ,   .   :  ,   .   ,   .   ,   .   ,   . ::
 
---------------------------------
--------------------------------

 
---------------------------------
--------------------------------

 
---------------------------------
--------------------------------

 
----------------H7---------------
--------------------------------

 
---------------------------------
-H7-----------------------------

 
------------------------H4-------
--------------------------------



    ,   .   ,   .   ,   .   ,   .    ,   .   ,   .   ,   .   ,   .
 
--------------------------------
---------------------------------

 
-3-----------3-----------3------
---------3-------3---3-----------

 
-2---2-------2-----------2------
---------0-------0---0-----------

 
-4-------4-----------4-------4--
-----2---------2-------------0---

 
--------------------------------
-0-----------0-----------0h2---2-

 
-0---------------0--------------
---------------------------------

 :: Far         and  silent        : lightning                       :
 ::                                :                                 :
 :: ,   .   ,   .   ,   .   ,   .  : ,   .   ,   .   ,   .   ,   .   :
 
--------------------------------
---------------------------------

 
--------------------------------
---------------------------------

 
--------------------------------
---------------------------------

 
--------------------------------
-H4-------------H5---------------

 
--------------------------------
---------------------------------

 
--------------------------------
---------------------------------



   ,   .   ,   .   ,   .   ,   .     ,   .   ,   .   ,   .   ,   .
 
---------------------------------
---------------------------------

 
-------------3-----------3-------
---------3---------------3-------

 
---------2---2-----------2-------
---------0---------------0-------

 
-------4---4-4-------4-------4---
-----2-------2-------2-------2---

 
-----0---------------------------
-0---------------0---------------

 
-0---------------0---------------
---------------------------------

 :                    Stirs  the   : cauldron              of  the   :
 :                                 :                                 :
 : ,   .   ,   .   ,   .   ,   .   : ,   .   ,   .   ,   .   ,   .   :
 
---------------------------------
---------------------------------

 
---------------------------------
---------------------------------

 
---------------------------------
---------------------------------

 
---------------------------------
-H3-------------H4---------------

 
-H4------------------------------
---------------------------------

 
---------------------------------
---------------------------------



   ,   .   ,   .   ,   .   ,   .     ,   .   ,   .   ,   .   ,   .
 
---------------------0-----------
-------------2-------------------

 
---------3-----------------3-----
---------3---3-----------3-------

 
---------2-----------2-------2---
-----0-------0-----------0-----0-

 
-----4-------4-----------------4-
-2-------------------2-------2---

 
---------------------------------
-0-----------0---0---------------

 
-0---------------0---------------
---------------------------------

 : sky                             :                                 :
 :                                 :                                 :
 : ,   .   ,   .   ,   .   ,   .   : ,   .   ,   .   ,   .   ,   .   :
 
---------------------------------
---------------------------------

 
---------------------------------
---------------------------------

 
---------------------------------
---------------------------------

 
------------------------H5-------
---------------------------------

 
-H3------------------------------
---------------------------------

 
---------------------------------
---------------------------------



   ,   .   ,   .   ,   .   ,   .     ,   .   ,   .   ,   .   ,   .
 
-----------3---------------------
-----------3---------------------

 
---------1---1---------------1---
---------3---3-------------------

 
-------0---------0-------0-------
-------0---------0-------0-------

 
-----3---------------3-----------
-----2---------------2-------2---

 
---------------------------------
---------------------------------

 
-3-----------3-------------------
-2-----------2-------------------

 :                     I  turn  my : bow       toward         the    :
 :                                 :                                 :
 : ,   .   ,   .   ,   .   ,   .   : ,   .   ,   .   ,   .   ,   .   :
 
-----------------0---------------
-----------------0---------------

 
-------------0-------------------
---------0-----------------------

 
--------------2------------------
-----------2---------------------

 
---------------0-----------------
-------------0-------------------

 
----------------3----------------
---------------------------------

 
---------------------------------
---------------------------------



   ,   .   ,   .   ,   .   ,   .    ,   .   ,   .   ,   .   ,   .
 
--------------------------------
---------------------------------

 
---------3-------3-------3------
---------3-------3---------------

 
---------0h2-----4p2-----2------
---------0h2-----4p2-----2/4-----

 
-----0-------0-------0-------0--
-----0-------0-------0-------0---

 
--------------------------------
---------------------------------

 
-0------------------------------
-0-------------------------------

 : shore                          :                                 ::
 :                                :                                 ::
 : ,   .   ,   .   ,   .   ,   .  : ,   .   ,   .   ,   .   ,   .   ::
 
-------------0-------0-------0--
-----0-------0-------0-------0---

 
---------0h2-----4p2-----2------
---------------------------------

 
--------------------------------
-------------------------------2-

 
--------------------------------
---------0h2-----4p0-----2h4-----

 
--------------------------------
-0-------------------------------

 
--------------------------------
---------------------------------



    ,   .   ,   .   ,   .   ,   .     ,   .   ,   .   ,   .   ,   .
 
---------------------------------
-------0h2---3h5----------------

 
-3-----------3-------------------
-3p0-3--------------------------

 
-----------------------------2h4-
--------------------------------

 
-----0-------0-------0-------0---
-----0-------0-------0-------0--

 
---------------------------------
--------------------------------

 
-0-------0-------0-------0-------
-0-------0-------0-------0------

 ::                                 :                                :
 ::                                 :                                :
 :: ,   .   ,   .   ,   .   ,   .   : ,   .   ,   .   ,   .   ,   .  :
 
-----0-----0-----------0-----0---
-----0-----0-----0-----0-----0--

 
-------3-----3-------3---3-------
-------3-----3-----3-----3------

 
---------2-----2---2-------2-----
---------2-----2-----2-----2----

 
-----------------2---------------
-2h4----------------------------

 
-0-------------------------------
--------------------------------

 
---------------------------------
--------------------------------



   ,   .   ,   .   ,   .   ,   .     ,   .   ,   .   ,   .   ,   .
 
-3-------3p0-3---------------3p0-
-3/5-----5p3-5-------------------

 
-------------------------3h5-----
---------------------------------

 
---------------------------------
---------------------------------

 
-----0-------0-------0-------0---
-----0-------0-------0-------0---

 
---------------------------------
---------------------------------

 
-0-------0-------0-------0-------
-0-------0-------0-------0-------

 :                                 :                                 :
 :                                 :                                 :
 : ,   .   ,   .   ,   .   ,   .   : ,   .   ,   .   ,   .   ,   .   :
 
---0-----0-----0-----0-----0-----
-----0-----0-----0-----0-----0---

 
-----5-----5-----5-----5-----5---
-------5-----5-----5-----5-----5-

 
-2-----2-----2-----2-----2-------
-7/9-----9-----9-----9-----9-----

 
---------------------------------
---------------------------------

 
---------------------------------
---------------------------------

 
---------------------------------
---------------------------------



   ,   .   ,   .   ,   .   ,   .     ,   .   ,   .   ,   .   ,   .
 
-8-------7-7-------------7-------
-7-----7-----5-------------------

 
---------------------------8-----
---------------------------------

 
---------------------------------
---------------------------------

 
-----0-------0-------0-------0---
-----0-------0-------0-------0---

 
---------------------------------
---------------------------------

 
-0-------0-------0-------0-------
-0-------0-------0-------0-------

 :                                 :                                 :
 :                                 :                                 :
 : ,   .   ,   .   ,   .   ,   .   : ,   .   ,   .   ,   .   ,   .   :
 
-----0---0-----0-----0-----0-----
-0-----0-----0-----0-----0-----0-

 
-------5---5-----5-----5-----5---
---5-----5-----5-----5-----5-----

 
-7h9---------9-----7-----9-----7-
-----6-----7-----9-----9-----9---

 
---------------------------------
---------------------------------

 
---------------------------------
---------------------------------

 
---------------------------------
---------------------------------



   ,   .   ,   .   ,   .   ,   .     ,   .   ,   .   ,   .   ,   .
 
-0h3-5p3-7---8-------7p5-----7---
---7h8--10p7-10------------------

 
-----------8-------------8/10--8-
-10------------------------------

 
---------------------------------
---------------------------------

 
-----0-------0-------0-------0---
-----0-------0-------0-------0---

 
---------------------------------
---------------------------------

 
-0-------0-------0-------0-------
-0-------0-------0-------0-------

 :                                 :                                 :
 :                                 :                                 :
 : ,   .   ,   .   ,   .   ,   .   : ,   .   ,   .   ,   .   ,   .   :
 
-----0-----0-----0-----0-----0---
---0-----0-----0-----0-----0-----

 
-------5-----5-----5-----5-----5-
-----5-----5-----------5-----5---

 
-7\------0-----------------------
-----------------0h2-----2-----2-

 
---------------0-----------2-----
-------------2-------------------

 
---------------------3-----------
-0-----4-------------------------

 
---------------------------------
---------------------------------



    ,   .   ,   .   ,   .   ,   .      ,   .   ,   .   ,   .   ,   .
 
-10-7-----------------------------
-10-7-----------------------------

 
------8-------------------7h8-10--
------8---------------7-----------

 
--------7\5---7-------7-9---------
--------7\5---7-----------9p7-5---

 
------0-------0-------0-------0---
------0-------0-------0-------0---

 
----------------------------------
----------------------------------

 
--0-------0-------0-------0-------
--0-------0-------0-------0-------

 :                                  :                                  :
 :                                  :                                  :
 :  ,   .   ,   .   ,   .   ,   .   :  ,   .   ,   .   ,   .   ,   .   :
 
------0---0-----0-----0-----0-----
----0-------0---0---0-----0-----0-

 
------------5-----5-----5-----5---
------5---------------5-----5-----

 
--0h2---2-----2-----4-----2-------
--2-----2p0---2---2-----2-----2---

 
----------------------------------
----------------------------------

 
----------------------------------
----------------------------------

 
----------------------------------
----------------------------------



    ,   .   ,   .   ,   .   ,   .      ,   .   ,   .   ,   .   ,   .
 
-10-7-----------------------------
-10-7-----------------------------

 
------8-------------------7h8-10--
------8---------------7br-7-------

 
--------7\5---7-----5/7-9---------
--------7\5---7-------------------

 
------0-------0-------0-------0---
------0-------0-------0-------0---

 
----------------------------------
----------------------------------

 
--0-------0-------0-------0-------
--0-------0-------0-------0-------

 :                                  :                                  :
 :                                  :                                  :
 :  ,   .   ,   .   ,   .   ,   .   :  ,   .   ,   .   ,   .   ,   .   :
 
----0-------0---0---0-----0-----0-
----0-------0---0---0-----0-----0-

 
------5---------------5-----5-----
----------------------5-----5-----

 
--2-----2p0---2---2-----2-----2---
--2---2p0-----2---2-----2-----2---

 
----------------------------------
----------2-----------------------

 
----------------------------------
----------------------------------

 
----------------------------------
----------------------------------



    ,   .   ,   .   ,   .   ,   .      ,   .   ,   .   ,   .   ,   .
 
-10-7-----------------------------
-10-7-----------------------------

 
------8-------------------7---7---
------8-------------7-8---8\5-7---

 
--------7\5---7-----7h9-----------
--------7\5---7-------------------

 
------0-------0-------0-------0---
------0-------0-------0-------0---

 
----------------------------------
----------------------------------

 
--0-------0-------0-------0-------
--0-------0-------0-------0-------

 :                                  :                                  :
 :                                  :                                  :
 :  ,   .   ,   .   ,   .   ,   .   :  ,   .   ,   .   ,   .   ,   .   :
 
----0-------0---0---0-----0-----0-
----0-------0---0---0-----0-----0-

 
----------------------5-----5-----
----------------------5-----5-----

 
--2---2p0-----2---2-----2-----2---
--2---2p0-----2---2-----2-----2---

 
----------2-----------------------
----------2-----------------------

 
----------------------------------
----------------------------------

 
----------------------------------
----------------------------------



    ,   .   ,   .   ,   .   ,   .      ,   .   ,   .   ,   .   ,   .
 
-10-7-----------------------7-----
-10-7-----------------------------

 
------8---------------7h8-10--10--
------8-------------7h8---7-------

 
--------7\5---7-------------------
--------7\5---7---------------7---

 
------0-------0-------0-------0---
------0-------0-------0-------0---

 
----------------------------------
----------------------------------

 
--0-------0-------0-------0-------
--0-------0-------0-------0-------

 :                                  :                                  :
 :                                  :                                  :
 :  ,   .   ,   .   ,   .   ,   .   :  ,   .   ,   .   ,   .   ,   .   :
 
----0-------0---0---0-------0---0-
----0-------0---0---0-----0-----0-

 
----------------------5---2---2---
--2-------------------5-----5-----

 
--2---2p0-----2---2---------------
------2p0-----2---2-----2-----2---

 
----------2-----------------------
----------2-----------------------

 
----------------------------------
----------------------------------

 
----------------------------------
----------------------------------



    ,   .   ,   .   ,   .   ,   .      ,   .   ,   .   ,   .   ,   .
 
-10-7-----------------------------
-10-7-----------------------------

 
------8-------------------7h8-10--
------8--------------10br-10------

 
--------7\5---7-----7h9-----------
--------7\5---7-------------------

 
------0-------0-------0-------0---
------0-------0-------0-------0---

 
----------------------------------
----------------------------------

 
--0-------0-------0-------0-------
--0-------0-------0-------0-------

 :                                  :                                  :
 :                                  :                                  :
 :  ,   .   ,   .   ,   .   ,   .   :  ,   .   ,   .   ,   .   ,   .   :
 
----0-------0---0---0-----0-----0-
----0-------0---0---0-----0-----0-

 
----------------------5-----5-----
----------------------5-----5-----

 
--2---2p0-----2---2-----2-----2---
--2---2p0-----2---2-----2-----2---

 
----------2-----------------------
----------2-----------------------

 
----------------------------------
----------------------------------

 
----------------------------------
----------------------------------



    ,   .   ,   .   ,   .   ,   .      ,   .   ,   .   ,   .   ,   .
 
-10-7-------------------------7---
-14p10----------------------------

 
------8-----------------7-8h10----
-----13------------10h12--10------

 
--------7\5---7-----7h9-----------
-------11\9--11-------------------

 
------0-------0-------0-------0---
------0-------0-------0-------0---

 
----------------------------------
----------------------------------

 
--0-------0-------0-------0-------
--0-------0-------0-------0-------

 :                                  :                                  :
 :                                  :                                  :
 :  ,   .   ,   .   ,   .   ,   .   :  ,   .   ,   .   ,   .   ,   .   :
 
----0-----------------0-----0---0-
----0-----------------------------

 
--5-----------------5---2---------
--5-------------------------------

 
------4b--r-----------------------
------4b--r---------2h4---2--h4---

 
--------------4--/7-------7---7---
--------------4--/7---------------

 
----------------------------------
----------------------------------

 
----------------------------------
----------------------------------



    ,   .   ,   .   ,   .   ,   .      ,   .   ,   .   ,   .   ,   .
 
-14p10----------------------------
-14p10----------------------------

 
-----13------------10h12--13--12--
-----13------------10h12--10------

 
-------11\9--11-------------------
-------11\9--11-------------------

 
------0-------0-------0-------0---
------0-------0-------0-------0---

 
----------------------------------
----------------------------------

 
--0-------0-------0-------0-------
--0-------0-------0-------0-------

 :                                  :                                  :
 :                                  :                                  :
 :  ,   .   ,   .   ,   .   ,   .   :  ,   .   ,   .   ,   .   ,   .   :
 
----0-----------------0-------0---
----0-----------------------------

 
--5-------------------------------
--5-------------------------------

 
------4b--r-----------------------
------4b--r---------2h4---2--h4---

 
--------------4--/7-------7-------
--------------4--/7---------------

 
----------------------------------
----------------------------------

 
----------------------------------
----------------------------------



    ,   .   ,   .   ,   .   ,   .  5/4,  .  ,  .  ,  .  ,  .  ,   .
 
-14p10----------------------------
-5-----5-----5-----5------------

 
-----13------------10h12--10------
--------------------------------

 
-------11\9--11-------------------
-7-----5-----5-----4-----5p4----

 
------0-------0-------0-------0---
----0-----0-----0-----0------0--

 
----------------------------------
--------------------------------

 
--0-------0-------0-------0-------
-0-----0-----0-----0-----0------

 :                                  :                                ::
 :                                  :                                ::
 :  ,   .   ,   .   ,   .   ,   .  5/4,  .  ,  .  ,  .  ,  .  ,   .  ::
 
----0-----------------------------
----0-----0-----0-----0------0--

 
--5-----------------------2---3---
--------------------------------

 
------4b--r---------2h4-----------
-2-----0-----0------------------

 
--------------4--/7---------------
-------------------4-----5p4----

 
----------------------------------
--------------------------------

 
----------------------------------
--------------------------------



 4/4,   .   ,   .   ,   .   ,   .     ,   .   ,   .   ,   .   ,   .
 
---------5---5-5---------5-------
---------------------------------

 
-3-------3---3-3-3-------3-------
-3-----3---3---3---------3-------

 
-0h2-----2---2---2p0-----0-------
-0-----0-0-0-0-0---------2-------

 
-0-------0-------0-------0-------
-0h2-----2---2---2p0-0---0-------

 
-0---------------0-------0-------
-0-------0---0---0---0h2---------

 
-0---------------0---------------
-----------------------------0---

 ::                                 :                                 :
 ::                                 :                                 :
 4/4,   .   ,   .   ,   .   ,   .   : ,   .   ,   .   ,   .   ,   .   :
 
---------------------------------
---------------------------------

 
-----5---5-----5-----5---5-----5-
-----5---5-----5-----5---5-----5-

 
---2-------2-------2-------2-----
---2-------2-------2-------2-----

 
-------2-----2---------2-----2---
-------2-----2---------2-----2---

 
-0---------------0---------------
-0---------------0---------------

 
---------------------------------
---------------------------------



   ,   .   ,   .   ,   .   ,   .     ,   .   ,   .   ,   .   ,   .
 
---------5---5-5---------5-------
---------------------------------

 
-3-------3---3-3-3-------3-------
-3-----3---3---3---------3-------

 
-0h2-----2---2---2p0-----0-------
-0-----0-0-0-0-0---------2-------

 
-0-------0-------0-------0-------
-0h2-----2---2---2p0-0---0-------

 
-0---------------0-------0-------
-0-------0---0---0---0h2---------

 
-0---------------0---------------
-----------------------------0---

 :                                 :                                 :
 :                                 :                                 :
 : ,   .   ,   .   ,   .   ,   .   : ,   .   ,   .   ,   .   ,   .   :
 
---------------------------------
---------------------------------

 
-----5---5-----5-----5---5-----5-
-----5---5-----5-----5---5-----5-

 
---2-------2-------2-------2-----
---2-------2-------2-------2-----

 
-------2-----2---------2-----2---
-------2-----2---------2-----2---

 
-0---------------0---------------
-0---------------0---------------

 
---------------------------------
---------------------------------



   ,   .   ,   .   ,   .   ,   .     ,   .   ,   .   ,   .   ,   .
 
---------5---5-5---------5---5-5-
---------5---5-5---------5---5-5-

 
-3-------3---3-3-3-------3---3-3-
-3-------3---3-3-3-------3---3-3-

 
-0h2-----2---2---0h2-----2---2---
-0h2-----2---2---0h2-----2---2---

 
-0-------0-------0-------0-------
-0-------0-------0-------0-------

 
-0---------------0---------------
-0---------------0---------------

 
-0---------------0---------------
-0---------------0---------------

 :                                 :                                 :
 :                                 :                                 :
 : ,   .   ,   .   ,   .   ,   .   : ,   .   ,   .   ,   .   ,   .   :
 
---------------------------------
---------------------------------

 
-----5---5-----5-----5---5-----5-
-----5---5-----5-----5---5-----5-

 
---2-------2-------2-------2-----
---2-------2-------2-------2-----

 
-------2-----2---------2-----2---
-------2-----2---------2-----2---

 
-0---------------0---------------
-0---------------0---------------

 
---------------------------------
---------------------------------



   ,   .   ,   .   ,   .   ,   .  2/4,   .   ,   .
 
---------5---5-5---------5---5-5-
---------5---5-5-

 
-3-------3---3-3-3-------3---3-3-
-3-------3---3-3-

 
-0h2-----2---2---0h2-----2---2---
-0h2-----2---2---

 
-0-------0-------0-------0-------
-0-------0-------

 
-0---------------0---------------
-0---------------

 
-0---------------0---------------
-0---------------

 : As we grow      out of stones   : On  and on  and :
 :                                 :                 :
 : ,   .   ,   .   ,   .   ,   .  2/4,   .   ,   .   :
 
---------------------------------
-----------------

 
-----5---5-----5-----5---5-----5-
-----5---5-----5-

 
---2-------2-------2-------2-----
---2-------2-----

 
-------2-----2---------2-----2---
-------2-----2---

 
-0---------------0---------------
-0---------------

 
---------------------------------
-----------------



 4/4,   .   ,   .   ,   .   ,   .     ,   .   ,   .   ,   .   ,   .
 
----3-3---3---3-3---3-3-----3-3---
-------5-5-5-5---------5-5-5-5---

 
----1-1---1---1-1---1-1-----1-1---
-3-----3-3-3-3---3-----3-3-3-3---

 
------0---0---0-------0-------0---
-0h2-----2---2---0h2-----2---2---

 
--2---2---2-------2---2---2---2---
-0-----------0---0-----------0---

 
--0-------0-------0-------0-------
-0---------------0---------------

 
--0---------------0-------0-------
-0---------------0---------------

 :  on                              : So we'll all    go to bones     :
 :                                  :                                 :
 4/4,   .   ,   .   ,   .   ,   .   : ,   .   ,   .   ,   .   ,   .   :
 
----------------------------------
---------------------------------

 
------3---3-----------3-------3---
-----5---5-----5-----5---5-----5-

 
------0---0-----------0-------0---
---2-------2-------2-------2-----

 
----0-----------0---0---0---0---0-
-------2-----2---------2-----2---

 
--0---------------0-------0-------
-0---------------0---------------

 
----------------------------------
---------------------------------



 3/4,   .   ,   .   ,   .  4/4,   .   ,   .   ,   .   ,   .
 
----------5-5-5-5---0-0---
-----2---------------2-------2---

 
--3-------3-3-3-3---1-1---
-----3-------3-------3-------3---

 
--0h2-----2---2-------0---
-----2-------2-------2-------2---

 
--0-------0-------2---2---
-0---0-------0---0---0-------0---

 
--0---------------0-------
-0---------------0---------------

 
--0-----------------------
-0---------------0---------------

 :  On  and on  for many a  : year                       And  :
 :                          :                                 :
 3/4,   .   ,   .   ,   .  4/4,   .   ,   .   ,   .   ,   .   :
 
--------------------------
---------------------------------

 
------5---5-----5-3-----0-
-----2---2-----2-----2---2-----2-

 
----2-------2-------0-----
---2-------2-------2-------2-----

 
--------2-----2-------0---
-------2-----2---------2-----2---

 
--0-----------------------
-0---------------0---------------

 
--------------------------
---------------------------------



   ,   .   ,   .   ,   .   ,   .     ,   .   ,   .   ,   .   ,   .
 
-----2-----0---------------------
-----2-----------3p2-------------

 
-----3-----3-----3---------3-----
-----------3---------3-----3-----

 
-----2-----------0-----0-------0-
---------------2-------2h4---4p2-

 
-----0-------0-------0-------0---
-----0-------0-------0-------0---

 
-----------------2-------2-------
---------------------------------

 
-0-------0-----------------------
-0-------0-------0-------0-------

 : let  us     go  laughing        : oh                              :
 :                                 :                                 :
 : ,   .   ,   .   ,   .   ,   .   : ,   .   ,   .   ,   .   ,   .   :
 
---------------------------------
---------------------------------

 
-----2---2-----2-----3---3-----3-
-----2---2-----2-----2---2-----2-

 
---2-------2-------2-------2-----
---2-------2-------2-------2-----

 
-------2-----2---------4-----4---
-------2-----2---------2-----2---

 
-0---------------0---------------
-0---------------0---------------

 
---------------------------------
---------------------------------



   ,   .   ,   .   ,   .   ,   .     ,   .   ,   .   ,   .   ,   .
 
-2---------0---------------------
-------2---------3p2-------------

 
-----------------3-----3---------
-----------3-----------3-----0---

 
-------2-------------------------
---2-----------2-----------2---2-

 
-----0-------0-------0-------0---
-----0-------0-------0-------0---

 
-----------------2-------0h2-----
---------------------------------

 
-0-------0-----------------------
-0-------0-------0-------0-------

 : Let  us  go                     :                             And :
 :                                 :                                 :
 : ,   .   ,   .   ,   .   ,   .   : ,   .   ,   .   ,   .   ,   .   :
 
---------------------------------
---------------------------------

 
-----2---2-----2-----3---3-----3-
-----2---2-----2-----2---2-----2-

 
---2-------2-------2-------2-----
---2-------2-------2-------2-----

 
-------2-----2---------4-----4---
-------2-----2---------2-----2---

 
-0---------------0---------------
-0---------------0---------------

 
---------------------------------
---------------------------------



   ,   .   ,   .   ,   .   ,   .  2/4,   .   ,   .
 
---------5---5-5---------5---5-5-
---------5---5-5-

 
-3-------3---3-3-3-------3---3-3-
-3-------3---3-3-

 
-0h2-----2---2---0h2-----2---2---
-0h2-----2---2---

 
-0-------0-------0-------0-------
-0-------0-------

 
-0---------------0---------------
-0---------------

 
-0---------------0---------------
-0---------------

 : May  the holy   hermit's staff  : On  and on  and :
 :                                 :                 :
 : ,   .   ,   .   ,   .   ,   .  2/4,   .   ,   .   :
 
---------------------------------
-----------------

 
-----5---5-----5-----5---5-----5-
-----5---5-----5-

 
---2-------2-------2-------2-----
---2-------2-----

 
-------2-----2---------2-----2---
-------2-----2---

 
-0---------------0---------------
-0---------------

 
---------------------------------
-----------------



 4/4,   .   ,   .   ,   .   ,   .     ,   .   ,   .   ,   .   ,   .
 
----3-3---3---3-3---3-3-----3-3---
-------5-5-5-5---------5-5-5-5---

 
----1-1---1---1-1---1-1-----1-1---
-3-----3-3-3-3---3-----3-3-3-3---

 
------0---0---0-------0-------0---
-0h2-----2---2---0h2-----2---2---

 
--2---2---2-------2---2---2---2---
-0-----------0---0-----------0---

 
--0-------0-------0-------0-------
-0---------------0---------------

 
--0---------------0-------0-------
-0---------------0---------------

 :  on                              : Guide you to the shortest path  :
 :                                  :                                 :
 4/4,   .   ,   .   ,   .   ,   .   : ,   .   ,   .   ,   .   ,   .   :
 
----------------------------------
---------------------------------

 
------3---3-----------3-------3---
-----5---5-----5-----5---5-----5-

 
------0---0-----------0-------0---
---2-------2-------2-------2-----

 
----0-----------0---0---0---0---0-
-------2-----2---------2-----2---

 
--0---------------0-------0-------
-0---------------0---------------

 
----------------------------------
---------------------------------



 3/4,   .   ,   .   ,   .  4/4,   .   ,   .   ,   .   ,   .
 
----------5-5-5-5---0-0---
-----2---------------2-------2---

 
--3-------3-3-3-3---1-1---
-----3-------3-------3-------3---

 
--0h2-----2---2-------0---
-----2-------2-------2-------2---

 
--0-------0-------2---2---
-0---0-------0---0---0-------0---

 
--0---------------0-------
-0---------------0---------------

 
--0-----------------------
-0---------------0---------------

 :  On  and on  for many a  : year                       And  :
 :                          :                                 :
 3/4,   .   ,   .   ,   .  4/4,   .   ,   .   ,   .   ,   .   :
 
--------------------------
---------------------------------

 
------5---5-----5-3-----0-
-----2---2-----2-----2---2-----2-

 
----2-------2-------0-----
---2-------2-------2-------2-----

 
--------2-----2-------0---
-------2-----2---------2-----2---

 
--0-----------------------
-0---------------0---------------

 
--------------------------
---------------------------------



   ,   .   ,   .   ,   .   ,   .     ,   .   ,   .   ,   .   ,   .
 
-----2-----0---------------------
-----2-----------3p2-------------

 
-----3-----3-----3---------3-----
-----------3---------3-----3-----

 
-----2-----------0-----0-------0-
---------------2-------2h4---4p2-

 
-----0-------0-------0-------0---
-----0-------0-------0-------0---

 
-----------------2-------2-------
---------------------------------

 
-0-------0-----------------------
-0-------0-------0-------0-------

 : let  us     go  laughing        : oh                              :
 :                                 :                                 :
 : ,   .   ,   .   ,   .   ,   .   : ,   .   ,   .   ,   .   ,   .   :
 
---------------------------------
---------------------------------

 
-----2---2-----2-----3---3-----3-
-----2---2-----2-----3---4---5---

 
---2-------2-------2-------2-----
---2-------2-------2-------2---2-

 
-------2-----2---------4-----4---
-------2-----2---------2---------

 
-0---------------0---------------
-0---------------0---------------

 
---------------------------------
---------------------------------



   ,   .   ,   .   ,   .   ,   .     ,   .   ,   .   ,   .   ,   .
 
-2---------0---------------------
-------2---------3p2-------------

 
-----------------3-----3---------
-----------3-----------3-----0---

 
-------2-------------------------
---2-----------2-----------2---2-

 
-----0-------0-------0-------0---
-----0-------0-------0-------0---

 
-----------------2-------0h2-----
---------------------------------

 
-0-------0-----------------------
-0-------0-------0-------0-------

 : Let  us  go                     :                             And :
 :                                 :                                 :
 : ,   .   ,   .   ,   .   ,   .   : ,   .   ,   .   ,   .   ,   .   :
 
---------------------------------
---------------------------------

 
-----2---2-----2-----3---3-----3-
-----2---2-----2-----2---2-----2-

 
---2-------2-------2-------2-----
---2-------2-------2-------2-----

 
-------2-----2---------4-----4---
-------2-----2---------2-----2---

 
-0---------------0---------------
-0---------------0---------------

 
---------------------------------
---------------------------------



   ,   .   ,   .   ,   .   ,   .     ,   .   ,   .   ,   .   ,   .
 
-----2-----0---------------------
-----2-----------3p2-------------

 
-----3-----3-----3---------3-----
-----------3---------3-----3-----

 
-----2-----------0-----0-------0-
---------------2-------2h4---4p2-

 
-----0-------0-------0-------0---
-----0-------0-------0-------0---

 
-----------------2-------2-------
---------------------------------

 
-0-------0-----------------------
-0-------0-------0-------0-------

 : let  us     go  laughing        : oh                              :
 :                                 :                                 :
 : ,   .   ,   .   ,   .   ,   .   : ,   .   ,   .   ,   .   ,   .   :
 
---------------------------------
---------------------------------

 
-----2---2-----2-----3---3-----3-
-----2---2-----2-----3---4---5---

 
---2-------2-------2-------2-----
---2-------2-------2-------2---2-

 
-------2-----2---------4-----4---
-------2-----2---------2---------

 
-0---------------0---------------
-0---------------0---------------

 
---------------------------------
---------------------------------



   ,   .   ,   .   ,   .   ,   .     ,   .   ,   .   ,   .   ,   .
 
-2---------0---------------------
-----0h2---------1p0------------

 
-----------------3-----3---------
-----------3--------3-----------

 
-------2-------------------------
---2-----------2-----4---4/7----

 
-----0-------0-------0-------0---
-----0-------0------------------

 
-----------------2-------0h2-----
--------------------------------

 
-0-------0-----------------------
-0-------0---------------0------

 : Let  us  go                     :                                ::
 :                                 :                                ::
 : ,   .   ,   .   ,   .   ,   .   : ,   .   ,   .   ,   .   ,   .  ::
 
---------------------------------
--------------------------------

 
-----2---2-----2-----3---3-----3-
-----2---2----------------------

 
---2-------2-------2-------2-----
---2-------------5p4------------

 
-------2-----2---------4-----4---
-------2-----2-------4---4/7----

 
-0---------------0---------------
-0-----------------------0------

 
---------------------------------
--------------------------------

 


/
How To Set Up Higher Praise As Your Home Page
Copyright 1999, Higher Praise HigherPraise,Inc. All rights reserved. Terms of Use

Enjoy A Life Changing Experience

 
 
 
HigherPraise, Higher Praise, HigherPraise, Higher Praise, HigherPraise

Members..Sign Up. LogIn

 
 

Higher Praise Other Sites
 
 

HigherPraise.org/
Praise And Worship
www.higherpraise.org

HigherPraise.net
Christian Resources
www.higherpraise.net

HigherPraiseTube.com
Videos And Audios
www.higherpraisetube.com.


ChristianLyrics.org

Lyrics And Chrords
www.christianlyrics.org

ChristianChordsLyrics

Lyrics And Chrords
www.christianchordslyrics.com

ChristianChordLyrics

Lyrics And Chrords
www.christianchordlyrics.com

WorshipLyrics.org
10.000 Illustrations
www.worshiplyrics.org

WorshipLyrics.net
10.000 Illustrations
www.worshiplyrics.net

PraiseLyrics.com
PowerPoint Lyrics

www.praiselyrics.com

PraiseLyrics.org
PowerPoint Lyrics

www.praiselyrics.org

1GodTube.com
Chistian Videos

www1godtube..com

OneGodTube.com
Chistian Videos

www.onegodtube..com

 

/
Copyright 1999 - 2019, Higher Praise™ HigherPraise™,Inc. All rights reserved. Terms of Use