Higher Praise - Guitar Chords, Lyrics  GuitarTabs -  Praise nad Worship Music And Christian Songs

Higher Praise - Guitar Tabs, Guitar Chords, Lyrics
   Lyrics, Chords And Tabs
   Popular Lyrics Chords Tab
   Power Point Lyrics
   Praise & Worship Music
   Christian Music Videos
   15900 Videos & Audios
   Midi Files
   Worship Questions
   Christmas Chords, Lyrics
   Lyrics, Chords Tabs Rated

Sermon Outlines And Audio Sermons
   9344 Sermon Outlines
   N.T. Sermon Outlines
   O.T. Sermon Outlines
   Special Guest Outlines
   10.000 Illustrations
   Sunday School Studies
   Bible College Studies
   Greatest Preachers
   Bible Research Tools
Audio Sermons
   2895 Audio Sermons
   85 Sermon Videos
   291 Special Guests Serm

   Complete Audio Bible
Higher Praise Sunday School Teaching
   Children's NT Studies
   Children's OT Studies

   98 Children's Midis
   Gospel For Kids Movie
   Children's JESUS Film
Higher Praise Christian Video Library ,Videos
   Christian Television
   TBN TV Live
   15,000 Videos - HP Tube
   712 Youth Music Vids
  Christian Video Library
   Praise Videos #1 & #2
   85 Sermon Videos
   Prophecy Film -Videos
   JESUS Film -Video
   Childrens JESUS Film
   Gospel For Kids Movie
   Passion Of The Christ
   Noah, Sodom, Sinai, Ark
   Tsunami Videos Photos
News And Information
   Testimonies
   Submit Lyrics, Tabs, Serm
   10.000 Illustrations
   Bible College Course
   Clipart & Web Graphics
   Greatest Preachers
   Complete Talking Bible
   Christian Chat Rooms
   Links Church Resource
   HP Statement Of Faith
Download Clipart
   Audio Sermons
   Clipart & Web Graphics
   Church Administration
   Bible Study Software
   Screen Savers Software
   Verse A Day Software
   Educational Games
   Trade Center Photos

   Soft. Search Engine
Higher Praise News
   Current News
    Archived News
   Submit News
   Newsletter   Higher Praise Interact Prayer
   Prayer For All Needs
   
Submit Lyrics, Sermons
   
Contact Higher Praise
   
Advertising 
   Privacy Policy
//
He Died For You,  Click For Answer! This Is Who Jesus Is Video

'
 
0-9 A B C D E F G H I J K L M N O P Q R S T U V W X Y Z
.

//
Click For Printable...Version Of This File
 

Desolation Row


by Bob Dylan




This is the lead guitar for the song.  At the very bottom is the chords.  Both guitars 
capoed at the 4th fret.  The chords used are C Csus4 F G.  See below for the order in 
the are used.  The harmonica key is the key of E.

C     032010*
Csus4 033010*
F     033211* or 133211 or 003211
G     320033* or 320003

*recomended

------
-----------------

------
-----------------

------
---------0-------

------
---0-2-------3---

------
-3---------------

--3---
-----------------



  C
  :   .   .   .     :   .   .   .     :   .   .   .

-----------------
-----------------
-----------------
----------------

-----------------
-----------------
-----------------
----------------

-----------------
-0---------------
-----------------
----------------

-2----------/3---
-----3---2---0---
/2-0-------------
------------0---

-----------------
-----------------
-----3-------3---
--------3-------

-----------------
-----------------
-----------------
----3-----------

                                                        They're selling

  C
  :   .   .   .     :   .   .   .     :   .   .   .     :   .   .   .

-----------------
-----------------
-----------------
-----------------

-----------------
-----------------
-----------------
-----------------

-----------------
-----------------
-----------------
-------------0---

-----------------
-----------------
-----------------
-----0---2-------

-3---------------
-----------------
-----------------
-3---------------

-----------------
-----------------
-------------3---
-----------------

  postcards             of the hanging                              They're

  F                                   C
  :   .   .   .     :   .   .   .     :   .   .   .     :   .   .   .

-----------------
-----------------
-------------0---
-3---1---010-----

-----------------
-----------------
---------1-3-----
-------------3---

-----------------
-----------------
-----0-----------
-----------------

-3---------------
-----------------
-----------------
-----------------

-----------------
-----------------
-----------------
-----------------

-----------------
-----------------
-----------------
-----------------

  painting the      passports       brown                           The

  G
  :   .   .   .     :   .   .   .     :   .   .   .     :   .   .   .

-----------------
-----------------
-----------------
-----------------

-1---------------
-----------------
-------0h3---1---
-010-------------

-----------------
-----------------
-----------------
-----2---0-------

-----------------
-----------------
-----0-----------
-------------0---

-----------------
-----------------
-----------------
-----------------

-----------------
-----------------
-----------------
-----------------

  beauty-parlor's filled with sailors

  F                                   C
  :   .   .   .     :   .   .   .     :   .   .   .     :   .   .   .

-------------1---
-1---1---1---1---
-0-----------0---
-----------------

-----------------
-----------------
-----------------
-3---3---3---3---

-2-----------2---
-2---2---2---2---
-0-----------0---
-----------------

-----------------
-----------------
-----------------
-3---3---3---3---

-----------------
-----------------
-----------------
-----------------

-----------------
-----------------
-----------------
-----------------

       The circus is in town

  C
  :   .   .   .     :   .   .   .     :   .   .   .     :   .   .   .

-----------------
-----------------
-----------------
-0---1---3-------

-3--/5-----------
-----------------
---------1---3---
-----------------

-----------------
-----------------
-----0-----------
-----------------

-3--/5-----------
-----------------
-----------------
-----------------

-----------------
-----------------
-----------------
-----------------

-----------------
-----------------
-----------------
-----------------

  Here comes the blind commissioner

  F                                   C
  :   .   .   .     :   .   .   .     :   .   .   .     :   .   .   .

-1---------------
-----------------
-----------------
-3---1---010-----

-----------------
-----------------
-----------------
-------------3---

-----------------
-----------------
-------------0---
-----------------

-----------------
-----------------
-----------------
-----------------

-----------------
-----------------
-----------------
-----------------

-----------------
-----------------
-----------------
-----------------

  They've got him in a trance

  G
  :   .   .   .     :   .   .   .     :   .   .   .     :   .   .   .

-----------------
-----------------
-------0-1---010-
-----------------

-3---------------
-----------------
-----3-----------
-3---3---1-------

-----------------
-----------------
-----------------
-----------2p0---

-----------------
-----------------
-----------------
-----------------

-----------------
-----------------
-----------------
-----------------

-----------------
-----------------
-----------------
-----------------

One hand is tied to the tight-rope walker

  F                                   C
  :   .   .   .     :   .   .   .     :   .   .   .     :   .   .   .

-----------------
-----------------
-----------------
-----------------

-----------------
-1---------------
-----------------
-----------------

-2-----------3---
-----3--p2-------
-0-------0-2-0---
-----------------

-----------------
-----------------
-----------------
-3---2---0-------

-----------------
-----------------
-----------------
-------------2---

-----------------
-----------------
-----------------
-----------------

The other is in his pants

  F
  :   .   .   .     :   .   .   .     :   .   .   .     :   .   .   .

-----------------
-----------------
-----------------
-----------------

-----------------
-----------------
-------------1---
---------1-------

-----------------
-----------------
---------2-------
-----2-------2---

-----------------
-----------------
-----3-----------
-----------------

-3---------------
-----------------
-----------------
-----------------

-----------------
-----------------
-----------------
-----------------

And the riot-squad they're restless                                They

  C                                   F
  :   .   .   .     :   .   .   .     :   .   .   .     :   .   .   .

-----------------
-----------------
-----------------
-----------------

-----------------
-----------------
-------------1---
-3---131-----1---

-0---------------
-----------------
-----------2-----
---------2-------

-----------------
-----------------
---------3-------
-----------------

-----------------
-----------------
-----------------
-----------------

-----------------
-----------------
-----------------
-----------------

need somewhere to go

  C                                   G
  :   .   .   .     :   .   .   .     :   .   .   .     :   .   .   .

-----------------
-0---1---3---010-
-------------0---
-1---010---------

-1-----------3---
-----------------
-3---------------
---------3---1---

-----------------
-----------------
-----------------
-----------------

-----------------
-----------------
-----------------
-----------------

-----------------
-----------------
-----------------
-----------------

-----------------
-----------------
-----------------
-----------------

As Lady and I                 look    out tonight

  F                                   C                 Csus4
  :   .   .   .     :   .   .   .     :   .   .   .     :   .   .   .

-----1-----------
--------(1)------
---------0-------
-1-1-1-1-1---0---

-----------------
-----------------
-----1-------1---
-----------------

-2---------------
-----2-------2---
-0---------------
-----------------

-----------------
-----------------
-----------------
-----------------

-----------------
-----------------
-----------------
-----------------

-----------------
-----------------
-----------------
-----------------

From Desolation Row

  C                 Csus4             C
  :   .   .   .     :   .   .   .     :   .   .   .     :   .   .   .

---------0-------
-0-1-1-1-1---0---
-----------------
---------0---1---


-----1-------1---
-----------------
-1---------------
-1---3-----------


-0---------------
-----------------
-------------0---
-----------------


-----------------
-----------------
-----------------
-----------------


-----------------
-----------------
-----------------
-----------------


-----------------
-----------------
-----------------
-----------------


[2nd verse]

   C
   :   .   .   .     :   .   .   .     :   .   .   .     :   .   .   .

-0---------------
-----------------
---------0---1---
-010-------------


-----------------
-----------------
-----------------
-----3---1---3---


-----------------
-----------------
-----0-----------
-----------------


-----------------
-----------------
-----------------
-----------------


-----------------
-----------------
-----------------
-----------------


-----------------
-----------------
-----------------
-----------------

   Cinderella....

  F                                   C
  :   .   .   .     :   .   .   .     :   .   .   .     :   .   .   .

-----------------
-----------------
-----3---3---1---
-1--/3-------3---

-1---------------
-----------------
-----5---5---3---
-3--/5-------5---

-----------------
-----------------
-----------------
-----------------

-----------------
-----------------
-----------------
-----------------

-----------------
-----------------
-----------------
-----------------

-----------------
-----------------
-----------------
-----------------

  it takes one...

  G
  :   .   .   .     :   .   .   .     :   .   .   .     :   .   .   .

-3--\1-----------
-----------------
-----------------
-----------------

-5--\3-----------
-----------------
---------3---5---
-6---5---3-------

-----------------
-----------------
---------4---5---
-7---5---4-------

-----------------
-----------------
-----------------
-----------------

-----------------
-----------------
-----------------
-----------------

-----------------
-----------------
-----------------
-----------------

  puts her hand...

  F                                   C
  :   .   .   .     :   .   .   .     :   .   .   .     :   .   .   .

-1---------------
-----------------
-------------0---
-3---1---010-----

-----------------
-----------------
---------1-3-----
-------------3---

-2---------------
-----------------
-----0-----------
-----------------

-----------------
-----------------
-----------------
-----------------

-----------------
-----------------
-----------------
-----------------

-----------------
-----------------
-----------------
-----------------

  Betty Davies style

  C
  :   .   .   .     :   .   .   .     :   .   .   .     :   .   .   .

-----------------
-----------------
-----------------
-------------0---

-1---------------
-----------------
-----------------
---------1-------

-----------------
-----------------
-----------------
-----0-----------

-----------------
-----------------
-------------0---
-2---------------

-----------------
-----------------
---------3-------
-----------------

-----------------
-----------------
-----------------
-----------------

  In comes Romeo...

  F                                   C
  :   .   .   .     :   .   .   .     :   .   .   .     :   .   .   .

-1---------------
-----------------
---------3---1---
-010-------------

-----------------
-----------------
-----1-----------
-----3---1-------

-----------------
-----------------
-----------------
-------------0---

-----------------
-----------------
-----------------
-----------------

-----------------
-----------------
-----------------
-----------------

-----------------
-----------------
-----------------
-----------------

  you belong to me...

  G
  :   .   .   .     :   .   .   .     :   .   .   .     :   .   .   .

-----------------
-----------------
-----------------
-----------------

-0---------------
-----------------
-----------------
--h1--h1--0------

-----------------
-----------------
-----------------
-------------2p0-

-----------------
-----------------
-------------0---
-----------------

-----------------
-----------------
-----------------
-----------------

-----------------
-----------------
-----------------
-----------------

  And someone says...

  F                                   C
  :   .   .   .     :   .   .   .     :   .   .   .     :   .   .   .

-----------------
-----------------
-----------------
-----------------

-----------------
-----------------
-----------------
-----------------

-----------------
-----------------
-----------------
-0---------------

-3---------------
-----------------
-----------0-2---
-----2---2---0---

-----------------
-----------------
---------3-------
-----------------

-----------------
-----------------
-----3-----------
-----------------

  you'd better leave

  F
  :   .   .   .     :   .   .   .     :   .   .   .     :   .   .   .

-----------------
-----------------
-------------5---
-6---565---------

-----------------
-----------------
---------6-------
--------(6)------

-----------------
-----------------
-----5-----------
-----------------

-3---------------
-----------------
-----------------
------------(3)--

-----------------
-----------------
-----------------
-----------------

-----------------
-----------------
-----------------
-----------------

 And the only sound...

  C                                   F
  :   .   .   .     :   .   .   .     :   .   .   .     :   .   .   .

-----------------
-----------------
-----------------
-----------------

-----------------
-----------------
-----------------
-----------------

(0)--------------
-----------------
-----------------
h2---3---232-----

-----------------
-----------------
-------------3---
-------------3---

-----------------
-----------------
-----0---3-------
-----------------

-----------------
-----------------
-----------------
-----------------

  after the ambulances go

  C                                   G
  :   .   .   .     :   .   .   .     :   .   .   .     :   .   .   .

-----------------
-----------------
-----------------
-----------------

-----------------
-----------------
-----------------
-----------------

-----------------
-----------------
-----------------
-----------------

(3)--------------
-----------------
-------------0---
-3p2-0-----------

-----------------
-----------------
---------2-------
---------2-------

-----------------
-----------------
-----3-----------
-------------5p3-

  Is Cinderella...

  F                                   C                 Csus4
  :   .   .   .     :   .   .   .     :   .   .   .     :   .   .   .

-----------------
-----------------
-----------------
-1-1-1-1-1---0---

-----------------
-----------------
-------------1---
-----------------

-----------------
-----------------
---------0-------
-----------------

-3---------------
-----------------
-----------------
-----------------

-----------------
-----3-----------
-3---3-----------
-----------------

-------------1---
-5-------5p3-1---
-----------------
-----------------

  on Desolation Row

  C                 Csus4             C
  :   .   .   .     :   .   .   .     :   .   .   .     :   .   .   .

-------------0---
-1-1-1-1-1---0---
-------------0---
-1-1-1-1-1---0---


-1-------1-------
-----------------
-1-------1-------
-----------------


-----0-----------
-----------------
-----0-----------
-----------------


-----------------
-----------------
-----------------
-----------------


-----------------
-----------------
-----------------
-----------------


-----------------
-----------------
-----------------
-----------------



[3rd verse]

   C
   :   .   .   .     :   .   .   .     :   .   .   .     :   .   .   .

-----------------
-----------------
-----------------
-0-------8-------


-1---------------
-----------------
---------1---3---
-----8-------8---


-----------------
-----------------
-----0-----------
-----------------


-----------------
-----------------
-----------------
-----------------


-----------------
-----------------
-----------------
-----------------


-----------------
-----------------
-----------------
-----------------



  F                                   C
  :   .   .   .     :   .   .   .     :   .   .   .     :   .   .   .

-5---------------
-----------------
---------3---5---
-353-------------

-----------------
-----------------
-----5-----------
-----6---5--(1)--

-----------------
-----------------
-----------------
-----------------

-----------------
-----------------
-----------------
-----------------

-----------------
-----------------
-----------------
-----------------

-----------------
-----------------
-----------------
-----------------



  G
  :   .   .   .     :   .   .   .     :   .   .   .     :   .   .   .

-----------------
-----------------
-----------------
---------7---8p7-

-0---------------
-----------------
---------3-------
-----8-----------

-----------------
-----------------
------4----------
-----------------

-----------------
-----------------
---5-------------
-----------------

-----------------
-----------------
-----------------
-----------------

-----------------
-----------------
-----------------
-----------------



  F                                   C
  :   .   .   .     :   .   .   .     :   .   .   .     :   .   .   .

-5---------------
-------------5---
-3---5---353-----
-----------------

-----------------
---------6-------
-------------6---
-5---6---5---3---

-----------------
-----5-----------
-----------------
-----------------

-----------------
-----------------
-----------------
-----------------

-----------------
-----------------
-----------------
-----------------

-----------------
-----------------
-----------------
-----------------



  C
  :   .   .   .     :   .   .   .     :   .   .   .     :   .   .   .

-----------------
-----------------
-----0---1---3---
-----3---5---3---

-3--p5-------5---
-----------------
-----1---3---5---
-----5---6---5---

-----------------
-----------------
-----------------
-----------------

-----------------
-----------------
-----------------
-----------------

-----------------
-----------------
-----------------
-----------------

-----------------
-----------------
-----------------
-----------------



  F                                   C
  :   .   .   .     :   .   .   .     :   .   .   .     :   .   .   .

-5---------------
-----------------
-----------------
-----------------

-6---------------
-----------------
---------5---6---
-565-------------

-----------------
-----------------
-----------------
-----7---575-----

-----------------
-----------------
-----5-----------
-------------7---

-----------------
-----------------
-----------------
-----------------

-----------------
-----------------
-----------------
-----------------



  G
  :   .   .   .     :   .   .   .     :   .   .   .     :   .   .   .

-----------------
-----------------
-----------------
-----------------

-----------------
-----------------
-----------------
-----------------

-----------------
-------------4---
-7---4---5---454-
-----------------

-5---------------
---------5-7-----
-----------------
-7---5-------5---

-----------------
-----5-----------
-----------------
---------5-------

-----------------
-----------------
-----------------
-----------------



  F                                   C
  :   .   .   .     :   .   .   .     :   .   .   .     :   .   .   .

-----------------
-----------------
---------0---1---
h0---------------

-----------------
-----------------
-------1---------
-----3---1-------

-------------0---
-2---3---2-------
-----0-----------
-------------0---

-3-------3-------
-----------------
-----------------
-----------------

-----3-----------
-----------------
-----------------
-----------------

-----------------
-----------------
-----------------
-----------------



  F
  :   .   .   .     :   .   .   .     :   .   .   .     :   .   .   .

-----------------
-----------------
-----------------
---------1---3---

-----------------
-----------------
-----------------
-----1-----------

-2---------------
-----------------
-------------0---
-2---------------

-----------------
-----------------
---------3-------
-----------------

-----------------
-----------------
-0---3-----------
-----------------

-----------------
-----------------
-----------------
-----------------



  C                                   F
  :   .   .   .     :   .   .   .     :   .   .   .     :   .   .   .

(3)--------------
-----------------
-------------3---
-3---1---1-------

-----------------
-----------------
-------------1---
-1---1---1-------

-----------------
-----------------
-------------2---
-2---2---2-------

-----------------
-----------------
-----------------
-------------3---

-----------------
-----------------
-----------------
-----------------

-----------------
-----------------
-----------------
-----------------



  C                                   G
  :   .   .   .     :   .   .   .     :   .   .   .     :   .   .   .

-0-----------1---
-1---0---0-------
-----------------
-----------------

-1-----------1---
-1---1---1-------
-3------------5--
-5---3---3-------

-0-----------0---
-0---0---0---2---
-4------------4--
-4---4---4-------

-----------------
-----------------
-5------------5--
-5---5---5---3---

-----------------
-----------------
-----------------
-----------------

-----------------
-----------------
-----------------
-----------------



  F                                   C                 Csus4
  :   .   .   .     :   .   .   .     :   .   .   .     :   .   .   .

-1---------------
-----------------
-----------------
-3-3-3-3-3---3---

-1---------------
-----------------
-------------5---
-5---6---6---6---

-2---------------
-----------------
---------5-------
-----------------

-----------------
-----------------
-----5-----------
-----------------

-----------------
-----------------
-----------------
-----------------

-----------------
-----------------
-----------------
-----------------



  C                 Csus4             C
  :   .   .   .     :   .   .   .     :   .   .   .     :   .   .   .

-3---------------
-3-3-3-3-3---3---
-3-----------3---
-3-3-3-3-3---3---


-6p5-----5-------
-5---6---6---6---
-6p5---------5---
-5---6---6---5---


-------------5---
-----------------
-----------------
-----------------


-----------------
-----------------
-----------------
-----------------


-----------------
-----------------
-----------------
-----------------


-----------------
-----------------
-----------------
-----------------


[4th verse]

   C
   :   .   .   .     :   .   .   .     :   .   .   .     :   .   .   .

-3---------------
-----------------
-----------------
---------8-------


-5---------------
-----------------
-----------------
-----8-------8---


-----------------
-----------------
-------------7---
-9---------------


-----------------
-----------------
---------10------
-----------------


-----------------
-----------------
-----10----------
-----------------


-----------------
-----------------
-----------------
-----------------



  F                                   C
  :   .   .   .     :   .   .   .     :   .   .   .     :   .   .   .

-----------------
-----------------
-----------------
-5---------------

-8h10------------
-----------------
-------------8---
-----6---5-------

-----------------
-----------------
-----------------
-----------------

-----------------
-----------------
-----------------
-----------------

-----------------
-----------------
-----------------
-----------------

-----------------
-----------------
-----------------
-----------------



  G
  :   .   .   .     :   .   .   .     :   .   .   .     :   .   .   .

-----------------
-----------------
-----------------
-----7---8p7-----

-----------------
-----------------
-----------------
-8-----------8---

-7---------------
-----------------
-------------7---
-----------------

-----------------
-----------------
---------9-------
-----------------

-----------------
-----------------
-----10----------
-----------------

-----------------
-----------------
-----------------
-----------------



  F                                    C
  :   .   .   .     :   .   .    .     :   .   .   .     :   .   .   .

-----------------
------------------
-----------------
-----------------

-10--------------
-----10--11p10----
-8-----------10--
p8---------------

-----------------
---10---------10--
-----------------
-----10--9---7---

-----------------
-10---------------
-----------------
-----------------

-----------------
------------------
-----------------
-----------------

-----------------
------------------
-----------------
-----------------



  C
  :   .   .   .     :   .   .   .     :   .   .   .     :   .   .   .

-----------------
-----------------
-----------------
---------3-------

-----------------
-----------------
-------------3---
-5---6-------5---

-7--h9-----------
-----------------
---------5-------
-----------------

-----------------
-----------------
-----5-----------
-----------------

-----------------
-----------------
-----------------
-----------------

-----------------
-----------------
-----------------
-----------------


  F                                   C
  :   .   .   .     :   .   .   .     :   .   .   .     :   .   .   .

-----------------
-----------------
-----5---353-----
-----------------

-6---------------
-----------------
-------------6---
-5---353---------

-----------------
-----------------
-----------------
---------5-------

-----------------
-----------------
-----------------
-----------------

-----------------
-----------------
-----------------
-----------------

-----------------
-----------------
-----------------
-----------------



  G
  :   .   .   .     :   .   .   .     :   .   .   .     :   .   .   .

-----------------
-----------------
-----------------
-----------------

-----------------
-3---------------
-----------------
-----------------

-4-----------5---
---------5-------
-5---4-------5---
-454-2-----------

-----------------
-----------------
-----------------
---------5---4---

-----------------
-----------------
-----------------
-----------------

-----------------
-----------------
-----------------
-----------------



  F                                   C
  :   .   .   .     :   .   .   .     :   .   .   .     :   .   .   .

-----------------
-----------------
---------0---1---
-010-------------

-----------------
---------1-------
-1---3-----------
-----3---1-------

-----------------
-----2-------2---
-----------------
-----------------

-3---------------
-3---------------
-----------------
-----------------

-----------------
-----------------
-----------------
-----------------

-----------------
-----------------
-----------------
-----------------



  F
  :   .   .   .     :   .   .   .     :   .   .   .     :   .   .   .

---------1-------
-1---------------
---------1---1---
-----------------

-----1-----------
-----------------
-----------------
-----------------

-2---------------
-----------------
-----------------
-----------------

-----------------
-----------------
-3---------------
-----------------

-----------------
-----------------
-----------------
-----------------

-----------------
-----------------
-----------------
-----------------


  C                                   F
  :   .   .   .     :   .   .   .     :   .   .   .     :   .   .    .

-------------3---
-3---3---3---3---
-5-----------5---
(5)--8---8--------

-------------5---
-5---6---565-5---
-6-----------6---
(6)--8---8h10p8---

-----------------
-----------------
-----------------
------------------

-----------------
-----------------
-----------------
------------------

-----------------
-----------------
-----------------
------------------

-----------------
-----------------
-----------------
------------------



  C                                   G
  :   .   .   .     :   .   .   .     :   .   .   .     :   .   .   .

-8---------------
-----------------
-7-----------7---
-8---7-------7---

10p8-------------
---------8-------
-8---------------
---------8-------

-----------------
---------9-------
-----------------
-----------------

-----------------
-----------------
-----------------
-----------------

-----------------
-----------------
-----------------
-----------------

-----------------
-----------------
-----------------
-----------------



  F                                   C                 Csus4
  :   .   .   .     :   .   .   .     :   .   .   .     :   .   .   .

-5---------------
-5h6-5-----------
-3---------------
-8---------------

-6-------------6-
-------------6---
-5-----------8---
---------8h10----

-------------5---
-----------------
-----------------
-----------------

-----------------
---------7-------
-----------------
-----------------

-----------------
-----------------
-----------------
-----------------

-----------------
-----------------
-----------------
-----------------



  C                 Csus4               C
  :   .   .   .     :   .   .    .      :   .   .   .     :    .     .   .

-----------------
-------------------
-----------------
--------------------


h10--8-----------
-------------------
-----------------
--------------------


-------------10--
-9---9---9h10-9h10-
-9-----------9---
-9-10-10-10-h10-h10-


-----------------
-------------------
-----------------
--------------------


-----------------
-------------------
-----------------
--------------------


-----------------
-------------------
-----------------
--------------------



[5th verse]

   C
   :   .   .   .     :   .   .   .     :   .   .   .     :   .   .   .

-----------------
-----------------
-----------------
-----------------


-----------------
-----------------
-----------------
-----------------


p9---------------
-----------------
-----------------
-----------------


-----------------
-----------------
-----------0-2---
-0-------0---2---


-----------------
-----------------
---------3-------
-----3-----------


-----------------
-----------------
-----3-----------
-----------------



  F                                   C
  :   .   .   .     :   .   .   .     :   .   .   .     :   .   .   .

-----------------
-----------------
-----------------
-----------------

-----------------
-----------------
-----------------
-----------------

-------------0---
-2---------------
-----0---0---2---
-020-------------

-3---------------
-----------------
-----------------
-----3---2-------

-----------------
-----------------
-----------------
-------------2---

-----------------
-----------------
-----------------
-----------------



  G
  :   .   .   .     :   .   .   .     :   .   .   .     :   .   .   .

-----------------
-----------------
-----------------
-----------------

-----------------
-----------------
-----------------
-----------------

-----------------
-----------------
-----------------
-----------------

-----------------
-----------------
-----------------
---------0-------

-1h2-------------
---------0h2-0---
-------------0---
-2---3-------2---

-----------------
-----------------
-3---------------
-----------------



  F                                   C
  :   .   .   .     :   .   .   .     :   .   .   .     :   .   .   .

-----------------
-----------------
-----------------
------------------

-----------------
-----------------
-----------------
------------------

-----------------
-----------------
-----------------
------------------

-----------------
-----------------
-----------0-2---
-3---2---020------

-----------------
-0---3---0---3---
-3-------3-------
------------32----

-1-----------3---
-----------------
-----------------
------------------



  C
  :   .   .   .     :   .   .   .     :   .   .   .     :   .   .   .

-----------------
-----------------
-----------------
---------010-----

-----------------
-----------------
-----------------
-----1-------1---

-----------------
-----------------
-----------------
-0---------------

-----------------
-------------0---
-2-----------2---
-----------------

-3---------------
---------3-------
-----------------
-----------------

-----------------
-----3-----------
-----------------
-----------------


  F                                   C
  :   .   .   .     :   .   .   .     :   .   .   .     :   .   .   .

-0h1-------------
-----------------
---------3-------
-----------------

-----------------
-----------------
-------------6---
-5---3-----------

-----------------
-----------------
-----------------
---------5---5---

-----------------
-----------------
-----5-----------
-----------------

-----------------
-----------------
-----------------
-----------------

-----------------
-----------------
-----------------
-----------------



  G
  :   .   .   .     :   .   .   .     :   .   .   .     :   .   .   .

-----------------
-----------------
-----------------
-----------------

-----------------
-----------------
-------0h3---1---
-010-------------

-2h4-------------
-----------------
-----------------
-----2---020-----

-----------------
-----------------
-----0-----------
-------------0---

-----------------
-----------------
-----------------
-----------------

-----------------
-----------------
-----------------
-----------------



   F                                   C
   :   .   .   .     :   .   .   .     :   .   .   .     :   .   .   .

------------------
-----------------
-------------0---
-1p0-------------

------------------
-----------------
---------1-------
-----3---1-------

5p2-------------2-
---2-----2-------
-----0-----------
-------------0---

----------3-------
-----3-----------
-----------------
-----------------

--------------5---
-----------------
-----------------
-----------------

------------------
-----------------
-----------------
-----------------



  F
  :   .   .   .     :   .   .   .     :   .   .   .     :   .   .   .

-----------------
-------------5---
-5---6-------6---
-6---6---6---5---

-6---6-------6---
-------------6---
-6---6-------6---
-6---6---6---6---

-5---5-------5---
-------------5---
-5---5-------5---
-5---5---5---5---

-----------------
-----------------
-----------------
-----------------

-----------------
-----------------
-----------------
-----------------

-----------------
-----------------
-----------------
-----------------


  C                                   F
  :   .   .   .     :   .   .   .     :   .   .   .     :   .   .   .

-5---3-----------
-----------------
---------5-------
-6p5-------------

-6---5-----------
-----------------
-------6-----6---
-----8---6-------

-----------------
-----------------
-----5-----------
-------------5---

-----------------
-----------------
-----------------
-----------------

-----------------
-----------------
-----------------
-----------------

-----------------
-----------------
-----------------
-----------------



  C                                    G
  :   .   .   .     :   .    .   .     :   .   .   .     :   .   .   .

-----------------
------------------
-----------------
-----------------

-----------------
--------3h5-3-----
-3-----------5---
-6---5---353-----

-5---------------
-----5--------5---
-----------------
-------------5---

-----------------
-5----------------
-----------------
-----------------

-----------------
------------------
-----------------
-----------------

-----------------
------------------
-----------------
-----------------



  F                                   C                 Csus4
  :   .   .   .     :   .   .   .     :   .   .   .     :   .   .   .

-----------------
-----------------
-------------0---
-3---1---010-----

-----------------
-----1-------1---
-1-------1-3-----
-------------3---

-----------------
-2-------2-------
-----------------
-----------------

-3-----------3---
-----------------
-----------------
-----------------

-----------------
-----------------
-----------------
-----------------

-----------------
-----------------
-----------------
-----------------



  C                 Csus4             C
  :   .   .   .     :   .   .   .     :   .   .   .     :   .   .   .

-------------0---
-3---1---010-----
-----------------
---------0---3---


-1-------1-3---3-
-------------3---
-1---------------
-1---3-----------


-----------------
-----------------
-------------0---
-----------------


-----------------
-----------------
-----------------
-----------------


-----------------
-----------------
-----------------
-----------------


-----------------
-----------------
-----------------
-----------------



[6th verse]

   C
   :   .   .   .     :   .   .   .     :   .   .   .     :   .   .       .

-010-------------
-----------------
---------8---10--
-12--10--8h10p8--7---


-----------------
-----------------
-----------------
---------------------


-----------------
-----------------
-----------------
---------------------


-----------------
-----------------
-----------------
---------------------


-----------------
-----------------
-----------------
---------------------


-----------------
-----------------
-----------------
---------------------



  F                                   C
  :   .   .   .     :   .   .   .     :   .   .   .     :   .   .   .

-----------------
-----------------
-----------------
-----3-------3---

-10--------------
-----------------
-------------3---
-5-------5-------

-----------------
-----------------
---------5-------
-----------------

-----------------
-----------------
-----5-----------
-----------------

-----------------
-----------------
-----------------
-----------------

-----------------
-----------------
-----------------
-----------------



  G
  :   .   .   .     :   .   .   .     :   .   .   .     :   .   .   .

-----------------
-----------------
-----3---3---3---
-3---3---3-------

-6---------------
-----------------
-----6---6---5---
-5---3---3-------

-----------------
-----------------
-----------------
-----------------

-----------------
-----------------
-----------------
-----------------

-----------------
-----------------
-----------------
-----------------

-----------------
-----------------
-----------------
-----------------



  F                                   C
  :   .   .   .     :   .   .   .     :   .   .   .     :   .   .   .

-----------------
-----------------
---------3-------
-----------------

(1)------1-------
-----------------
-----------------
-6---5---3-------

(2)--------------
-2---------------
-----------------
-------------5---

-----------------
-----------------
-----5-------5---
-----------------

-----------------
-----------------
-----------------
-----------------

-----------------
-----------------
-----------------
-----------------



  C
  :   .   .   .     :   .   .   .     :   .   .   .     :   .   .   .

-----------------
-----------------
-------------3---
-3---5---353-----

-3h5-------------
-----------------
---------5-6-----
-------------6---

-----------------
-----------------
-----------------
-----------------

-----------------
-----------------
-----------------
-----------------

-----------------
-----------------
-----------------
-----------------

-----------------
-----------------
-----------------
-----------------


  F                                   C
  :   .   .   .     :   .   .   .     :   .   .   .     :      .   .   .

-5-----------6---
-8---------------
-----10--12--12--
-8h10p8-----8--------

-----------------
-----------------
-----------------
--------10------10---

-----------------
-----------------
-----------------
---------------------

-----------------
-----------------
-----------------
---------------------

-----------------
-----------------
-----------------
---------------------

-----------------
-----------------
-----------------
---------------------



  G
  :   .   .   .     :   .   .   .     :   .   .   .     :   .   .   .

-7---------------
-----------------
-10--8---787-----
-----------------

-----------------
-----------------
-------------10--
-8-------10--8---

-----------------
-----------------
-----------------
-----------------

-----------------
-----------------
-----------------
-----------------

-----------------
-----------------
-----------------
-----------------

-----------------
-----------------
-----------------
-----------------



  F                                   C
  :   .   .   .     :   .   .   .     :   .   .   .     :   .   .   .

-----------------
-----------------
-----------------
-----------------

-6 --------------
-----------------
-------------3---
-5---353-----5---

-----------------
-----------------
---------5-------
---------5-------

-----------------
-----------------
-----5-----------
-----------------

-----------------
-----------------
-----------------
-----------------

-----------------
-----------------
-----------------
-----------------



  F
  :   .   .   .     :   .   .   .     :   .   .   .     :   .   .   .

-----------------
-----------------
-----5---6---6---
-6---5---5-------

-6---------------
-----------------
-----6---6---6---
-6---6---6-------

-----------------
-----------------
-----5---5---5---
-5---5---5-------

-----------------
-----------------
-----------------
-----------------

-----------------
-----------------
-----------------
-----------------

-----------------
-----------------
-----------------
-----------------


  C                                   F
  :   .   .   .     :   .   .   .     :   .   .   .     :   .   .   .

-----------------
-----------------
-----------------
-----------------

-----------------
-----------------
-----------------
-----------------

-----------------
-----------------
-----------------
-----------------

-----------------
-----------------
-3-----------3---
-3-------3-------

-----------------
-3-----------3---
-----------------
-----------------

-------------3---
---------3-------
-----------------
-----------------



  C                                   G
  :   .   .   .     :   .   .   .     :   .   .   .     :   .   .   .

-----------------
-----------------
-----------------
-----------------

-----------------
-----------------
-----------------
-----------------

-----------------
-----------------
-----------------
-----------------

-----------------
-----------------
-----------------
-----------------

-----------------
---------3---5---
-3h5-------------
-----5---3h5-----

-----------------
-----3-----------
-----------------
-----------------



  F                                   C                 Csus4
  :   .   .   .     :   .   .   .     :   .   .   .     :   .   .   .

-----------------
-----------------
-----------------
-----------------

-----------------
-----------------
-----------------
-----------------

-----------------
-----------------
-----------------
-----------------

-----------------
-----------------
-------------0---
-2-----0h2p0-----

-3-----------3---
-5------h5p3-----
-3-------3-------
-------------3---

-----------------
-----------------
-----------------
-----------------



  C                 Csus4             C
  :   .   .   .     :   .   .   .     :   .   .   .     :   .   .   .

-----------------
-----------------
-----------------
-----------------


-----------------
-----------------
-----------------
-----------------


-----------------
-----------------
-----------------
-----------------


-0h2----h2---0---
-----0---2---2---
-----------------
-----0---2---020-


-----------------
-3---------------
-3-------3---3---
-3---------------


-----------------
-----------------
-----------------
-----------------



[7th verse]

   C
   :   .   .   .     :   .   .   .     :   .   .   .     :   .   .   .

-----------------
-----------------
-----------------
-----------------


-----------------
-----------------
-----------------
-----------------


-----------------
-----------------
-----------------
-----------------


-----------------
-----------------
-----------------
-----------------


-3---------------
-3---5---7---7p5-
-5h7---------5---
-7---5p3--3------


-------------3---
-----------------
-----------------
-------------3---



  F                                   C
  :   .   .   .     :   .   .   .     :   .   .   .     :   .   .   .

-----------------
-----------------
-----------------
-----------------

-----------------
-----------------
-----------------
-----------------

-----------------
-----------------
-----------------
-----------------

-----------------
-----------------
-----------------
-----------------

-----------------
-----------------
---------3---5---
-7---575-3-------

-1---------------
-----------------
-----------------
-------------7---



   G
   :   .   .   .    :   .   .   .     :   .   .   .     :   .   .   .

-----------------
-----------------
-----------------
-----------------

-----------------
-----------------
-----------------
-----------------

-----------------
-----------------
-----------------
-----------------

-----------------
-----------------
-----------------
-----------------

-----------------
-------------5---
---------5-------
-----------------

5p3--------------
-3---5---7-------
-----7-------7---
-5---3---3---3---



  F                                   C
  :   .   .   .     :   .   .   .     :   .   .   .     :   .   .   .

-----------------
-----------------
-----------------
-----------------

-----------------
-----------------
-----------------
-----------------

-----------------
-----------------
-----------------
-----------------

-----------------
-----------------
-----------------
-------------5---

-----------------
-3-------3-------
-3---------------
-3---5(/)7-------

-1-------1---5---
-----5-----------
-------------3---
-----------------



  C
  :   .   .   .     :   .   .   .     :   .   .   .     :   .   .   .

-----------------
-----------------
-----------------
-----------------

-----------------
---------5---6---
-8---------------
-8---6---565-----

-5---------------
-5---7-----------
-----------------
-------------7---

-------------5---
-----------------
-------------5---
-----------------

-----------------
-----------------
-----------------
-----------------

-----------------
-----------------
-----------------
-----------------


  F                                   C
  :   .   .   .     :   .   .   .     :   .   .   .     :   .   .   .

-----------------
-----------------
-----------------
-----------------

-----------------
-----------------
-----------------
-6p5-------------

-5---------------
-----------------
-------------5---
-----7---5-------

-----------------
-----------------
-----------------
-------------5---

-----------------
-----------------
-----------------
-----------------

-----------------
-----------------
-----------------
-----------------



  G
  :   .   .   .     :   .   .   .     :   .   .   .     :   .   .   .

-----------------
-----------------
-----------------
-----------------

-----------------
-----------------
-----------------
-1p0-------------

-4---------------
-----------------
----------0------
-----0-------0---

-----------------
-----------------
-----0-----------
---------0-------

-----------------
-----------------
---2-------------
-----------------

-----------------
-----------------
-3---------------
-----------------



  F                                   C
  :   .   .   .     :   .   .   .     :   .   .   .     :   .   .   .     :   .   .   .

---------1-------
-----------------
-----------------
-----------------
-----------------

-----------------
-----------------
-----------------
-----------------
-----------------

-2---------------
-3p2-------------
-----------------
-----------------
-----------------

-3---------------
-----5p3---------
-----------------
-2---5---2-------
-----------------

-------------3---
---------353-----
-3-------3---5---
-------------5p3-
-3-----------3---

-----------------
-------------5---
-----------------
-----------------
-----------------



F
  :   .   .   .     :   .   .   .      :   .    .   .     :   .   .   .

-----------------
-----------------
-------------------
-----------------

-----------------
-----------------
-------------------
-----------------

-----------------
-----------------
-------------------
-----------------

-----------------
-----0---3-------
-------------------
-----------------

-----------------
-0---------------
5p3----------------
-----0---3---0---

-1-----------3---
-----------------
----3h5-p3---------
-1---------------



  C                                   F
  :   .   .   .     :   .   .   .     :   .   .   .     :   .   .   .

-----------------
-----------------
-----------------
-----------------

-------------5---
-3---5-------5---
-----------------
-----------------

-------------5---
-4---5-------5---
-----------------
-----------------

-----------------
-----------------
-----------------
-----------------

-3---------------
---------3-------
-----------------
-----3-------0---

-----------------
-----------------
-1-----------1---
-3---------------



  C                                   G
  :   .   .   .     :   .   .   .     :   .   .   .     :   .   .   .

-----0-----------
-----1---1p0-----
-----------------
-----------------

-----------------
-------------1---
1/3--------------
-0---1---0-------

-----0-----------
-----------------
2/4--------------
-0---------------

-----------------
-----------------
-----------------
-------------0---

-3---------------
-----------------
3/5--------------
-----------------

-----------------
-----------------
---------3---3---
-----------------



  F                                   C                 Csus4
  :   .   .   .     :   .   .   .     :   .   .   .     :   .   .   .

-----------------
-----------------
-----------------
-0h1-1-1-1---0---

-----------------
-----------------
---------1-------
-1---1-1-1---1---

-2---------------
-----------------
---------0-------
-0---0---0---0---

-----------------
-----------------
-----------------
-----------------

-------------3---
-5---353-----3---
-3-----------3---
-----------------

-1-----3h5-------
---------5-------
-----------------
-----------------



  C                 Csus4             C
  :   .   .   .     :   .   .   .     :   .   .   .     :   .   .   .

-0---------------
-0h1-1-1-1---0---
-----0-------0---
---1-1-1-1p0-0---


-1-----------1---
-1---1---1---1---
-----1-------1---
-----1---1---1---


-0-------0-------
-----------------
-----0-------0---
-----------------


-----------------
-----------------
-----------------
-----------------


-----------------
-----------------
-3-------3-------
-----------------


-----------------
-----------------
-----------------
-----------------


[8th verse]

   C
   :   .   .   .     :   .   .   .     :   .   .   .     :   .   .   .

-----------------
-----------------
-----------------
-----------------


-----------------
-----------------
-----------------
-----------------


-----------------
-----------------
-----------------
-----------------


-----------------
-----------------
-----------0-2---
-0-------0---2---


-3---------------
-----------------
---------3-------
-----3-----------


-----------------
-----------------
-----------------
-----------------



  F                                   C
  :   .   .   .     :   .   .   .     :   .   .   .     :   .   .     .

-----------------
-----------------
-----------------
-------------------

-----------------
-----------------
-----------------
-------------------

-------------0---
-2---------------
-----------------
-------------------

-3---------------
-----------------
---------5h7-5---
-3-----------------

-----------------
-----------------
-----------------
-----7---5b7r5-3---

-----------------
-----------------
-----------------
-------------------



  G
  :   .   .   .     :   .   .   .     :   .   .   .     :   .   .   .

-----------------
-----------------
-----------------
-----------------

-----------------
-----------------
-----------------
-----------------

-----------------
-----------------
-----------------
-----------------

-----------------
-----0-----------
-----------------
-----------------

-------------0---
-2-------2---3---
-2---0---2p0-----
-----0---2p0-----

-3---------------
-----------------
------------3----
-------------3---



  F                                   C
  :   .   .   .      :   .   .   .     :   .   .   .     :   .   .   .

-----------------
------------------
-----------------
-----------------

-----------------
------------------
-----------------
-----------------

-----------------
------------------
-----------------
-0---------------

-----------------
------------------
-----------0-2---
-----3---2---0---

-----------------
------3---5---5p3-
-3-------3-------
-----------------

-1-----------1---
3/5---------------
-----------------
-----------------



  C
  :   .   .   .     :   .   .   .     :   .   .   .     :   .   .   .

-----------------
-----------------
-----------------
-----------------

-----------------
-----------------
-----5---5p3-3---
-5---5p3-3---5---

-----------------
-----------------
-----------------
-----------------

-0--h2-----------
-----------------
-------------3---
-5---5---3---5---

-----------------
-----------------
-----3---3-------
-----------------

-----------------
---------3---3---
-3---------------
-----------------



  F                                   C
  :   .   .   .     :   .   .   .     :   .   .   .     :   .    .   .

-----------------
-----------------
---------0---0---
-1---0--1p0---0---

-----------------
-----------------
---------1---1---
------------------

-----------------
-----------------
---------0---0---
------------------

-----------------
-----------------
-----------------
------------------

-----------------
-----0---3-------
-3---------------
------------------

-1---------------
-3---------------
-----------------
------------------



  G
  :   .   .   .     :   .   .   .     :   .    .   .     :   .   .   .

-----------------
-----------------
------------------
-----------------

-0---------------
-----------------
-3---1--0h1-0-----
-----------------

-----------------
-----------------
--------------2---
-0---2---0-------

-----------------
-------------0---
------------------
-------------0---

-----------------
-----------------
------------------
-----------------

-----------------
-----------------
------------------
-----------------



  F                                     C
  :   .   .   .      :   .    .   .     :   .   .   .     :   .   .   .

-----------------
-------------------
-----------------
-1---0---0-------

-----------------
-------------------
-------------1---
-----------------

---------2-------
2h3---2------------
---------0-------
-----------------

-3---------------
---------4p3-------
-----------------
-----------------

-------------3---
---------------3---
-3---------------
-----------------

-----------------
-------------------
-----------------
-----------------



  F
  :   .   .   .     :   .   .   .     :   .   .   .     :   .   .   .

---------1-------
-5---6---5-------
-5-------5---5---
-5---6---5-------

---------1-------
-6---6---6-------
-6-------6---6---
-6-------6-------

-2-------2-------
-5-------5-------
-5-------5---5---
-5-------5-------

-----------------
-----------------
-----------------
-----------------

-----------------
-----------------
-----------------
-----------------

-----------------
-----------------
-----------------
-----------------


  C                                   F
  :   .   .   .     :   .   .   .     :   .   .   .     :   .   .   .

-3-------3---5p3-
-----5p3-3-------
-1-----------1---
-1---1---1-------

-5-------5---5---
-----5---5-------
-1-----------1---
-1---1---1-------

-5-------5---5---
-----------------
-2-----------2---
-2---3---3p2-----

-----------------
-----------------
-----------------
-----------------

-----------------
-----------------
-----------------
-----------------

-----------------
-----------------
-----------------
-----------------



  C                                   G
  :   .   .   .     :   .   .   .     :   .   .   .     :   .   .   .

-0---------------
---------0-------
-----------------
-----------------

-1---------------
-----1-----------
---------3---1---
-010-------------

-0---------------
-----------------
-----------------
-----2---0-------

-----------------
-----------------
-----0-----------
-------------0---

-----------------
-----------------
-----------------
-----------------

-----------------
-----------------
-----------------
-----------------



  F                                   C                 Csus4
  :   .   .   .     :   .   .   .     :   .   .   .     :   .   .   .

-----------------
-----------------
---------0---0---
-0-1-1-1-1---0---

-----------------
-----------------
-----------------
-----------------

-----2---2---3---
-2h3-2-----------
-----0-----------
-----------------

-----------------
---------3---3---
-----------------
-----------------

-3---------------
-----------------
-3---------------
-----------------

-----------------
-----------------
-----------------
-----------------



  C                 Csus4
  :   .   .   .     :   .   .   .

-------------0---
-1-1-1-1-1---0---


-1-------1-------
-----------------


-----0-----------
-----------------


-----------------
-----------------


-----------------
-----------------


-----------------
-----------------


[9th verse]

   C
   :   .   .   .     :   .   .   .     :   .   .   .     :   .   .   .

-----------------
-1---0-----------
-----------------
-------------0---


-------------1---
---------1-------
-----------------
-1---2---3-------


---------0-------
-----------------
-------------0---
-----------------


-----------------
-----------------
-----------------
-----------------


-3---------------
-----------------
-----------------
-----------------


-----------------
-----------------
-----------------
-----------------



F                                   C
  :   .   .   .     :   .   .   .     :   .   .   .     :   .   .   .

(1)--------------
-----------------
-----------------
-----------------

-----------------
-----------------
-------------10--
-8-------8---8---

-----------------
-----------------
-------------10--
-9-------9---9---

-----------------
-----------------
-----------------
-----7-------7---

-----------------
-----------------
-----------------
-----------------

-----------------
-----------------
-----------------
-----------------



  G
  :   .   .   .     :   .   .   .     :   .   .   .     :   .   .   .

-----------------
-----------------
-----------------
-----------------

-8--\6---6---6---
-----------------
-----------------
-----6---6--\3---

-9--\7---7---7---
-----------------
-----------------
-----7---7--\4---

(9)--------------
-----------------
-----------------
-----------------

-----------------
-----------------
-----------------
-----------------

-----------------
-----------------
-----------------
-----------------



  F                                   C
  :   .   .   .     :   .   .   .     :   .   .   .     :   .   .   .

-1-----------1---
-1---1---1---1---
-0-------0---0---
-----------------

-----------------
-----------------
-----------------
-3---5---5---5---

-2---------------
-3---2---3---2---
-0-------0---0---
-----------------

-------------3---
-----------------
-----------------
-3---5---5---5---

-----------------
-----------------
-----------------
-----------------

-----------------
-----------------
-----------------
-----------------



  C
  :   .   .   .     :   .   .   .     :   .   .   .     :   .   .   .

-----------------
-----------------
-----------------
-----------------

-3--/5-----------
-----------------
---------5---6---
-6---8---8---8---

-----------------
-----------------
---------5---7---
-7---9---9---9---

-3--/5-----------
-----------------
-----------------
-----------------

-----------------
-----------------
-----------------
-----------------

-----------------
-----------------
-----------------
-----------------


  F                                   C
  :   .   .   .     :   .   .   .     :   .   .   .     :   .   .   .

-----------------
-----------------
-----------------
-----------------

-10--------------
-----------------
---------8---8---
-10--8---6---5---

-10--------------
-----------------
---------9---9---
-10--9---7---5---

-----------------
-----------------
-----------------
-----------------

-----------------
-----------------
-----------------
-----------------

-----------------
-----------------
-----------------
-----------------



  G
  :   .   .   .     :   .   .   .     :   .   .   .     :   .   .   .

-----------------
-----------------
-----------------
-----------------

-3---------------
-----------------
-----------------
-----0---1p0-----

-4---------------
-----------------
-------------0---
-2-----------0---

-----------------
-----------------
---------0-------
-----------------

-----------------
-----------------
-----------------
-----------------

-----------------
-----------------
-----------------
-----------------



  F                                   C
  :   .   .   .     :   .   .   .     :   .   .   .     :   .   .   .

-----------------
-----------------
---------0-------
-1---0-----------

-----------------
-----------------
-------------1---
---------3---1---

-2---------------
---------3p2-----
-----0-----------
-----------------

-----------------
-----3-------3---
-3---------------
-----------------

-----------------
-3---------------
-----------------
-----------------

-----------------
-----------------
-----------------
-----------------



  F
  :   .   .   .     :   .   .   .     :   .   .   .     :   .   .   .

-----------------
---------5---5---
---------5-------
-6---5-----------

-----------------
---------6---6---
-----------------
---------6-------

(2)--------------
-----5-----------
-----5-------5---
-------------5---

-----------------
-----------------
-----------------
-----------------

-----------------
-----------------
-----------------
-----------------

-----------------
-----------------
-----------------
-----------------



  C                                   F
  :   .   .   .     :   .   .   .     :   .   .   .     :   .   .   .

-----------------
-3---------------
-----------------
-8---------------

-----------------
-----6---5-------
-----------------
-----6-----------

---------5-------
-------------5---
---------5---5---
---------5-------

-5-----------5---
-----------------
-----7-----------
-------------7---

-----------------
-----------------
-----------------
-----------------

-----------------
-----------------
-----------------
-----------------



  C                                   G
  :   .   .   .     :   .   .   .     :   .   .   .     :   .   .   .

-----------------
-----------------
-----------------
-----------------

-----------------
-6---5---3-------
---------3-------
---------3---3---

---------5-------
-------------5---
----(2)----------
-----------------

-5---5-------5---
-----------------
--------------5--
-----5-----------

-----------------
-----------------
-----------------
-----------------

-----------------
-----------------
-----------------
-----------------



  F                                   C                 Csus4
  :   .   .   .     :   .   .   .     :   .   .   .     :   .   .   .

-----------------
-----------------
-----------------
---1-1-1-1---0---

---------1-------
-----------------
---------1-------
---1-1-1-1---1---

-----2-------2---
-3---2-----------
-0---0-----------
-----------------

-3---------------
---------3-------
-----------------
-----------------

-----------------
-------------3---
-------------3---
-----------------

-----------------
-----------------
-----------------
-----------------



  C                 Csus4             C
  :   .   .   .     :   .   .   .     :   .   .   .     :   .   .   .

-------------0---
-0-0-1-1-1---0---
-----------------
-----------------


-----------------
-----------------
-----------------
-----------------


-0-------0-------
-----------------
-----------------
-----------------


-----------------
-----------------
-----------------
-----------------


-----3-----------
-----------------
-----------------
-----------------


-----------------
-----------------
-----------------
-----------------



[solo]

   C
   :   .   .   .     :   .   .   .     :   .   .   .     :   .   .   .

------------------
-----------------
-----------------
-----------------


*-----5-----3-----
-----5-----3-----
-----5-----3-----
-----5-----------


------------------
-----------------
-----------------
-----------------


------5-------3---
-----5-------3---
-----5-------3---
-----5------(5)--


*-3---------------
-3---------------
-3---------------
-3---------------


----------3-------
---------3-------
---------3-------
---------3-------



  F                                   C
  :   .   .   .     :   .   .   .     :   .   .   .     :   .   .   .

-----------------
-----------------
-----------------
-----------------

-----------------
-----------------
-----5-----3---3-
-----5-----3-----

-----------------
-----------------
-----------------
-------------0h2-

-----------------
-----------------
-----5-------3---
-----5-----3-----

-------------3---
-----------------
-3---------------
-3---------------

-1-------3h5-----
-1-------3h5-5p3-
---------3-------
---------3-------



  G
  :   .   .   .     :   .   .   .     :   .   .   .     :   .   .   .

-----------------
-----------------
-----------------
-----------------

-----------------
-----------------
-----------------
-------------0---

-----4-----------
-----4---------4-
-----4---------4-
-----4---2-------

-----------7--(7)
-----------7-----
-----------7-----
-------------0---

----(5)----------
-----5-------3---
-----5-------3---
-----5---3-------

-3-------3---3---
-3-------3-------
-3-------3-------
-3---------------



  F                                   C
  :   .   .    .     :   .   .   .     :   .   .   .     :   .   .   .

------------------
-----------------
-----------------
------------------


------------------
-----------------
-----5-----3---3-
-----5-----3---3-*


-----2------2---2-
-----2-------2---
-----------------
------------------


------------------
-----------------
-----5-------3---
-----5-------3----


--------------3---
-0---------------
-3---------------
-3---------------*


-1-------3(h5)----
---------3h5-5p3-
---------3-------
---------3--------



  F
  :   .   .   .     :   .   .   .     :   .   .   .     :   .   .   .

-----------------
-----------------
-----------------
-----------------

-----------------
-----------------
-----------------
-----------------

-----2-------2---
-----------------
-----------------
-----------------

-----------------
-----------------
-----3-----3---3-
-----------------

-------------3---
(3)--5---353-----
-------------3---
-5---5p3-3-------

-1-------3h5-----
-------------5p3-
-1-------3h5-----
-------------5p3-


  C                                   F
  :   .   .   .     :   .   .   .     :   .   .   .     :   .   .   .

-----------------
-----------------
-----1-----------
-----1-----------

-----5-----------
-5---------------
-----1-----------
-----1-----------

-----------------
-----------------
-----2-----------
-----2-----------

-----5-----------
-5---53----------
---------------3-
-----------------

-3-------5---7---
---------53--5---
-------------3---
-----------------

-----------------
-----------------
-1-------3p5-----
-1-------3h5-5p3-



  C                                   G
  :   .   .   .     :   .   .   .     :   .   .   .     :   .   .   .

-----------------
-----------------
-----------------
-----------------

-----5-----------
-----5-----------
-----------------
-----------------

-----------------
-----------------
-----4-----------
-----4-----------

-----5-----------
-----------------
-----------7-----
-----------------

-3-------3---5---
-7-------53------
-----5-------3---
-----5-------53--

-----------------
-------------53--
-3-------3-------
-3-------3-------



  F                                   C                 Csus4
  :   .   .   .     :   .   .   .     :   .   .   .     :   .   .   .

-----------------
-----------------
-----------------
-----------------

-----------------
-----------------
-----5-----3---3-
-----5-----3---3-

-----2-----2-----
-----2-----------
-----------------
-----------------

-----3-----3-----
-----3-----------
-----5-------3---
-----5-------3---

-------------0---
-----------------
-3---------------
-3---------------

-1-------3-------
-1-------3h5-1---
---------3-------
---------3-------



  C                 Csus4 C           C                 Csus4
  :   .   .   .     :   .   .   . :   :   .   .   .     :   .   .   .

-----------------
-----------------
-----------------
-----------------


-----5-----3---3-
-----5-----3---3-
-----5-----3---3-
-----5-------5---


-----------------
-----------------
-----------------
-----------------


-----5-------3---
-----5-------3---
-----5-------3---
-----5-------5---


-3---------------
-3---------------
-3---------------
-3---------------


---------3-------
---------3-------
---------3-------
---------3-------


[last verse]
   C
   :   .   .   .     :   .   .   .     :   .   .   .     :   .   .   .

-----------------
-----------------
-----------------
-----------------


-----------------
-----------------
-----------------
-----------------


-----------------
-----------------
-----------------
-----------------


-----------------
-----------------
-----------------
-------------5---


-3---------------
-3---5---7---5---
-3---------------
-3---5---7-------


-------------3---
-----------------
-------------3---
-----------------


  F                                   C
  :   .   .   .     :   .   .   .     :   .   .   .     :   .   .   .

-----------------
-----------------
-----------------
-----------------

-----------------
-----------------
-----------------
-----------------

-----------------
-----0---2p0-----
-0-------0---2---
-020-------------

-3---------------
-3-----------3---
-----------------
-----3---2-------

-----------------
-----------------
-----------------
-------------2---

-----------------
-----------------
-----------------
-----------------



  G
  :   .   .   .     :   .   .   .     :   .   .   .     :   .   .   .

-----------------
-----------------
-----------------
-----------------

-----------------
-----------------
-----------------
-----------------

-----------------
-----------------
-----------------
-----------------

-----------------
-----------------
-----------------
-----------------

-2---------------
---------2---0---
-0-----------0---
-2---020---------

-----------------
-----------------
-----3-----------
---------3---0---



  F                                   C
  :   .   .   .     :   .   .   .     :   .   .   .     :   .   .   .

-----------------
-----------------
-----------------
-----------------

-----------------
-----------------
-----------------
-----------------

-----------------
-----------------
-----------------
-------------0---

-----------------
-----------------
-----------------
-----0---2-------

-----------------
-----------------
-----------------
-3---------------

-1-----------3---
-5---3---1---5---
-0-------0---3---
-----------------



  C
  :   .   .   .     :   .   .   .     :   .   .   .     :   .   .   .

-----------------
---------0---1---
-3-----------1---
-3---1---010-----

-1---------------
-1---3-----------
-----------------
-------------3---

--------------0--
-----------------
-----------------
-----------------

-----------------
-----------------
-----------------
-----------------

-----------------
-----------------
-----------------
-----------------

-----------------
-----------------
-----------------
-----------------


  F                                   C
  :   .   .   .     :   .   .   .     :   .   .   .     :   .   .   .

-1---------------
-----------------
-----------0-1---
-010-------------

-----------------
-----------------
---------1-------
-----3---1-------

-----------------
-----------------
-----0-----------
-------------0---

-----------------
-----------------
-----------------
-----------------

-----------------
-----------------
-----------------
-----------------

-----------------
-----------------
-----------------
-----------------



  G
  :   .   .   .     :   .   .   .     :   .   .   .     :   .   .   .

-----------------
-----------------
-----------------
-----------------

-0---------------
-----------------
-3---1---010-----
-----------------

-----------------
-----------------
-------------2---
-0---------------

-----------------
-------------0---
-----------------
-----0--h2---0---

-----------------
-----------------
-----------------
-----------------

-----------------
-----------------
-----------------
-----------------



  F                                   C
  :   .   .   .     :   .   .   .     :   .   .   .     :   .   .   .

-----1-----------
-----------------
-----------------
-----------------

---------1-------
-----------------
---------1-------
-1---3---1-------

-------------3---
-2---------------
-----0-------0---
------------(0)--

-----------------
-----------------
-----------------
-----------------

-3---------------
-----------------
-----------------
-----------------

-----------------
-----------------
-----------------
-----------------



  F
  :   .   .   .     :   .   .   .     :   .   .   .     :   .   .   .

-----------------
-----------------
-----------------
-5---5---5---3---

-----------------
-----------------
-------------6---
-6---6---6---5---

-2---------------
-----------------
-----5-------5---
-5---5---5---5---

-----------------
-----------------
-----------------
-----------------

-----------------
-----------------
-----------------
-----------------

-----------------
-----------------
-----------------
-----------------



  C                                   F
  :   .   .   .     :   .   .   .     :   .   .   .     :   .   .   .

---------3-------
-----3-----------
-------------5---
-8---6---565-----

---------5-------
-----5-----------
---------6-------
-------------6---

---------5-------
-----5-----------
-----5-----------
-----------------

-----------------
-----------------
-----------------
-----------------

-----------------
-----------------
-----------------
-----------------

-----------------
-----------------
-----------------
-----------------



  C                                   G
  :   .   .   .     :   .   .   .     :   .   .   .     :   .   .   .

-----------------
-----------------
-----------------
-----------------

-8-----------6---
-5---------------
-----------------
-----3-----------

-----------------
---------7---5---
-4---------------
---4-----4-------

-----------------
-----------------
-----------------
-5-----------5---

-----------------
-----------------
-----------------
-----------------

-----------------
-----------------
-----------------
-----------------



  F                                   C                 Csus4
  :   .   .   .     :   .   .   .     :   .   .   .     :   .   .   .

-----------------
-----------------
-------------3---
-3-3-3-3-3---3---

-----------------
-----------------
---------5-------
-5-6-6-6-6---6---

-----------------
-----------------
-----5-----------
-----------------

-3---------------
-----------------
-----------------
-----------------

-----------------
-----------------
-----------------
-----------------

-----------------
-----------------
-----------------
-----------------



  C                 Csus4             C
  :   .   .   .     :   .   .   .     :   .   .   .     :   .   .   .

-3-------3---3---
-3-3-3-3-3-------
-----------------
-----------------


-5-------5---5---
-5-6-6-6-6-------
---------5-------
---3---3-----5---


-----------------
-----------------
---------5-------
---5---5-----5---


-----------------
-------------3---
---------5-------
-3---3-------5---


-----------------
-----------------
-3-----------3---
---------3-------


-----------------
-----------------
-----------------
-----------------



Capo 4th fret
INTRO CHORDS
C   Csus4   C

                C         F      C
They're selling postcards of the hanging
        F                      C
They're painting the passports brown
    G
The beauty parlor is filled with sailors
F                C
The circus is in town
C
Here comes the blind commissioner
        F            C
They've got him in a trance
            G
One hand is tied to the tight-rope walker
    F               C
The other is in his pants
        F
And the riot squad they're restless
     C                 F
They need somewhere to go
   C               G
As Lady and I look out tonight
     F          C
From Desolation Row


Enjoy and once again harp key is E
 


/
How To Set Up Higher Praise As Your Home Page
Copyright 1999, Higher Praise HigherPraise,Inc. All rights reserved. Terms of Use

Enjoy A Life Changing Experience

 
 
 
HigherPraise, Higher Praise, HigherPraise, Higher Praise, HigherPraise

Members..Sign Up. LogIn

 
 

Higher Praise Other Sites
 
 

HigherPraise.org/
Praise And Worship
www.higherpraise.org

HigherPraise.net
Christian Resources
www.higherpraise.net

HigherPraiseTube.com
Videos And Audios
www.higherpraisetube.com.


ChristianLyrics.org

Lyrics And Chrords
www.christianlyrics.org

ChristianChordsLyrics

Lyrics And Chrords
www.christianchordslyrics.com

ChristianChordLyrics

Lyrics And Chrords
www.christianchordlyrics.com

WorshipLyrics.org
10.000 Illustrations
www.worshiplyrics.org

WorshipLyrics.net
10.000 Illustrations
www.worshiplyrics.net

PraiseLyrics.com
PowerPoint Lyrics

www.praiselyrics.com

PraiseLyrics.org
PowerPoint Lyrics

www.praiselyrics.org

1GodTube.com
Chistian Videos

www1godtube..com

OneGodTube.com
Chistian Videos

www.onegodtube..com

 

/
Copyright 1999 - 2019, Higher Praise™ HigherPraise™,Inc. All rights reserved. Terms of Use