Higher Praise - Guitar Chords, Lyrics  GuitarTabs -  Praise nad Worship Music And Christian Songs

Higher Praise - Guitar Tabs, Guitar Chords, Lyrics
   Lyrics, Chords And Tabs
   Popular Lyrics Chords Tab
   Power Point Lyrics
   Praise & Worship Music
   Christian Music Videos
   15900 Videos & Audios
   Midi Files
   Worship Questions
   Christmas Chords, Lyrics
   Lyrics, Chords Tabs Rated

Sermon Outlines And Audio Sermons
   9344 Sermon Outlines
   N.T. Sermon Outlines
   O.T. Sermon Outlines
   Special Guest Outlines
   10.000 Illustrations
   Sunday School Studies
   Bible College Studies
   Greatest Preachers
   Bible Research Tools
Audio Sermons
   2895 Audio Sermons
   85 Sermon Videos
   291 Special Guests Serm

   Complete Audio Bible
Higher Praise Sunday School Teaching
   Children's NT Studies
   Children's OT Studies

   98 Children's Midis
   Gospel For Kids Movie
   Children's JESUS Film
Higher Praise Christian Video Library ,Videos
   Christian Television
   TBN TV Live
   15,000 Videos - HP Tube
   712 Youth Music Vids
  Christian Video Library
   Praise Videos #1 & #2
   85 Sermon Videos
   Prophecy Film -Videos
   JESUS Film -Video
   Childrens JESUS Film
   Gospel For Kids Movie
   Passion Of The Christ
   Noah, Sodom, Sinai, Ark
   Tsunami Videos Photos
News And Information
   Testimonies
   Submit Lyrics, Tabs, Serm
   10.000 Illustrations
   Bible College Course
   Clipart & Web Graphics
   Greatest Preachers
   Complete Talking Bible
   Christian Chat Rooms
   Links Church Resource
   HP Statement Of Faith
Download Clipart
   Audio Sermons
   Clipart & Web Graphics
   Church Administration
   Bible Study Software
   Screen Savers Software
   Verse A Day Software
   Educational Games
   Trade Center Photos

   Soft. Search Engine
Higher Praise News
   Current News
    Archived News
   Submit News
   Newsletter   Higher Praise Interact Prayer
   Prayer For All Needs
   
Submit Lyrics, Sermons
   
Contact Higher Praise
   
Advertising 
   Privacy Policy
//
He Died For You,  Click For Answer! This Is Who Jesus Is Video

'
 
0-9 A B C D E F G H I J K L M N O P Q R S T U V W X Y Z
.

//
Click For Printable...Version Of This File
 

His Last Walk Album


by Blessthefall




	ARTIST: - Blessthefall
	ALBUM:  - His Last Walk

	None of this is my work, I did not make any of these tabs.
	I simply collected all of the highest rated tabs from
	throughout the site and compiled them into one file.
	I downloaded some people's Power Tabs and exported them
	to put into this compilation. All credit goes to the
	original people who tabbed the songs.
	Enjoy.

-- -- -- -- -- -- -- -- -- -- -- --
TABLE OF CONTENTS:
NOTE:
"With Eyes Wide Shut" does not have a tab.
To get to a select song, hit ctrl+f
And type the name of the song you want.
- - - - - - - - - - - - - - - - - -

1.  A Message To The Unknown
2.  Guys Like You Make Us Look Bad
3.  Higinia
4.  Could Tell A Love
5.  Rise Up
6.  Times Like These
7.  Pray
9.  Wait For Tomorrow
10. Black Rose Dying
11. His Last Walk

- - - - - - - - - - - - - - - - - -
_________________________________________________________________________________


---------------------------------------------------------------------------------
			******************************
			* 1.A MESSAGE TO THE UNKNOWN *
			******************************
---------------------------------------------------------------------------------

    Gtr I
    E  E     E     S  S  S  S  S  S    S  S  S   S  S   S  S  S  S  S  S  S

----------------------------------
---------------------------------------


o---------------------------------
---------------------------------------


----------------14-14-14-14-14-14-
-14-14-14--14-14--14-14-14-14-14-14-14-


----------------------------------
---------------------------------------


o---------------12-12-12-12-12-12-
-12-12-12--12-12--12-12-12-12-12-12-12-


----------------------------------
---------------------------------------



   Gtr II

                        PM
                                     PM

   E +S  S +S  S  E     S  S  E       E    +S   S +S   S  E     S  S  E

----------------------------------
---------------------------------------


o---------------------------------
---------------------------------------


----------------------------------
---------------------------------------


--0-(0)-0-(0)-0--0-----0--0--0----
--0----(0)--0-(0)--0--0-----0--0--0----


o-0-(0)-0-(0)-0--0-----0--0--0----
--0----(0)--0-(0)--0--0-----0--0--0----


--0-(0)-0-(0)-0--0-----0--0--0----
--0----(0)--0-(0)--0--0-----0--0--0----



  E   E   E    S  S  S  S  S  S    S  S  S  S  S  S  S  S  S  S  S  S

-------------------------------
----------------------------------------


-------------------------------
---------------------------------------o


-------------10-10-10-10-10-10-
-10-10-10-10-10-10-10-10-10-10-10-10----


-------------------------------
----------------------------------------


--------------8--8--8--8--8--8-
--8--8--8--8--8--8--8--8--8--8--8--8---o


-------------------------------
----------------------------------------



 S S S S S S  S  S  S  S  S  S    S  S  S  S  S  S  S  S  S  S  S  S

-------------------------------
----------------------------------------


-------------------------------
---------------------------------------o


-------------------------------
----------------------------------------


-8-8-8-8-8-8--8--8--8--8--8--8-
--8--8--8--8--8--8--3--3--3--3--3--3----


-8-8-8-8-8-8--8--8--8--8--8--8-
--8--8--8--8--8--8--3--3--3--3--3--3---o


-8-8-8-8-8-8--8--8--8--8--8--8-
--8--8--8--8--8--8--3--3--3--3--3--3----



  S  S  S   S  S  S  S S S S S S   S  S  S   S  S  S  S S S S S S

--------------------------------
--------------------------------

--------------------------------
--------------------------------

-------7h=10p=9p=7-10p0-9p0-7p0-
-------7h=10p=9p=7-10p0-9p0-7p0-

-7h10---------------------------
-7h10---------------------------

--------------------------------
--------------------------------

--------------------------------
--------------------------------



                        PM
                              PM

 E    +S   S +S  S  E   S S E     E    +S   S +S  S  E   S S E

--------------------------------
--------------------------------

--------------------------------
--------------------------------

--------------------------------
--------------------------------

-0----(0)--0-(0)-0--0---0-0-0---
-0----(0)--0-(0)-0--0---0-0-0---

-0----(0)--0-(0)-0--0---0-0-0---
-0----(0)--0-(0)-0--0---0-0-0---

-0----(0)--0-(0)-0--0---0-0-0---
-0----(0)--0-(0)-0--0---0-0-0---



                                                   To Coda
  S  S S  S S S  S S S S S S   S  S S  S S S  S S S S S S

----------------------------
-------------------------------

----------------------------
-------------------------------

------7h10p9p7-10p0-9p0-7p0-
------7h10p9p7-10p0-9p0-7p0----

-7h10-----------------------
-7h10--------------------------

----------------------------
-------------------------------

----------------------------
-------------------------------



 S  S S  S S S  S S S S S S   S  S S  S S S  S S S S S S

----------------------------
-------------------------------

----------------------------
-------------------------------

----------------------------
-------------------------------

-8--8-8--8-8-8--8-8-8-8-8-8-
-8--8-8--8-8-8--3-3-3-3-3-3----

-8--8-8--8-8-8--8-8-8-8-8-8-
-8--8-8--8-8-8--3-3-3-3-3-3----

-8--8-8--8-8-8--8-8-8-8-8-8-
-8--8-8--8-8-8--3-3-3-3-3-3----



  S  S  S   S  S  S  S S S S S S    S   S S  S S S  S S S S S S

--------------------------------
------------------------------

--------------------------------
------------------------------

-------7h=10p=9p=7-10p0-9p0-7p0-
--------7h10p9p7-10p0-9p0-7p0-

-7h10---------------------------
--7h=10-----------------------

--------------------------------
------------------------------

--------------------------------
------------------------------



           PM----

 E    +S   S +S  S  Q.            +H.

--------------------------------
------------------------------

--------------------------------
------------------------------

--------------------------------
------------------------------

-0----(0)--0-(0)-0--0-----------
-(0)--------------------------

-0----(0)--0-(0)-0--0-----------
-(0)--------------------------

-0----(0)--0-(0)-0--0-----------
-(0)--------------------------



  S  S S  S S S  S S S S S S   S  S S  S S S  E E E

----------------------------
------------------------

----------------------------
------------------------

------7h10p9p7-10p0-9p0-7p0-
------7h10p9p7-10-------

-7h10-----------------------
-7h10-------------------

----------------------------
------------------------

----------------------------
------------------------



 S  S S  S S S  S S S S S S   S  S S  S S S  E E E

----------------------------
------------------------

----------------------------
------------------------

----------------------------
------------------------

-8--8-8--8-8-8--8-8-8-8-8-8-
-8--8-8--8-8-8--8-------

-8--8-8--8-8-8--8-8-8-8-8-8-
-8--8-8--8-8-8--8-------

-8--8-8--8-8-8--8-8-8-8-8-8-
-8--8-8--8-8-8--8-------



    H.                           H.

-----------------------------
---------


o----------------------------
---------


-----------------------------
---------


-----------------------------
---------


o----------------------------
---------


-----------------------------
---------



      PM----------
   PM----

   S  S +S  S +S  S E S S S S   H.

-----------------------------
---------


o----------------------------
---------


-----------------------------
---------


--0----------------0---------
---------


o-0--0-(0)-0-(0)-0-0-0-0-0-0-
---------


--0--0-(0)-0-(0)-0-0-0-0-0-0-
---------



  Q.              S S S  S  S S    S  S  S  S  S  S

-------------------------------
--------------------------


-------------------------------
-------------------------o


----------------10p9-----------
--------------------------


-----------------------12p10---
-12p10--------------------


-------------------------------
-------12p10-12p10-------o


-------------------------------
--------------------------



 E  +S  S +S  S  Q.               E     E     E    E E E

-------------------------------
--------------------------


-------------------------------
-------------------------o


-------------------------------
--------------------------


-8--(8)-8-(8)-8--8-------------
--8-----8-----8----8-8-8--


-8--(8)-8-(8)-8--8-------------
--8-----8-----8----8-8-8-o


-8--(8)-8-(8)-8--8-------------
--8-----8-----8----8-8-8--



    E +S  S +S  S  S S S  S  S S    S S  S S  S S  S S  S S  S  S

-------------------------------
--------------------------------


o---------------10p8-----------
-10---11---10-------------------


-----------------------10h12---
----7----7----7-12p7-10p7-10s12-


--0-(0)-0-(0)-0----------------
--------------------------------


o-0-(0)-0-(0)-0----------------
--------------------------------


--0-(0)-0-(0)-0----------------
--------------------------------



   E +S  S +S  S  S S S  S  S S    S S  S S  S S  S S  S S  S  S

-------------------------------
--------------------------------


o------------------------------
--------------------------------


----------------10p9----7h=9---
-10---12---10----9----7----7s=9-


--0-(0)-0-(0)-0----------------
----7----7----7----7----7-------


o-0-(0)-0-(0)-0----------------
--------------------------------


--0-(0)-0-(0)-0----------------
--------------------------------



  1.
  E +S  S +S  S  S  S  S  S  S  S    S S  S S  S S S S S S  E

---------------------------------
-------------------------------


---------------------------------
------------------------------o


---------------10h12-10h12-10h12-
-10---12---10---9---7---[9]----


-8-(8)-8-(8)-8-------------------
----7----7----7---7---7--------


-8-(8)-8-(8)-8-------------------
------------------------------o


-8-(8)-8-(8)-8-------------------
-------------------------------



 E +S  S +S  S  S  S  S  S  S  S    S S  S S  S S S S S S  E

---------------------------------
-------------------------------


---------------------------------
------------------------------o


----------------7h=9--7h=9--7h=9-
--7-7--9-7--7-7-5-7-4-7-[5]----


-8-(8)-8-(8)-8-------------------
-------------------------------


-8-(8)-8-(8)-8-------------------
------------------------------o


-8-(8)-8-(8)-8-------------------
-------------------------------



  2.
                                     D.S.
  Gtrs I, II
  E +S  S +S  S +Q.     E E E E E E   H.

---------------------
-------------
--------

---------------------
-------------
--------

---------------------
-------------
--------

-8-(8)-8-(8)-8-(8)---
-8-8-8-------
--------

-8-(8)-8-(8)-8-(8)---
-8-8-8-------
--------

-8-(8)-8-(8)-8-(8)---
-8-8-8-------
--------



  &
  S  S  S   S  S  S  S S S S S S   S  S  S   S  S  S  S S S S S S

--------------------------------
--------------------------------

--------------------------------
--------------------------------

-------7h=10p=9p=7-10p0-9p0-7p0-
-------7h=10p=9p=7-10p0-9p0-7p0-

-7h10---------------------------
-7h10---------------------------

--------------------------------
--------------------------------

--------------------------------
--------------------------------



                        PM
                              PM

 E    +S   S +S  S  E   S S E     E    +S   S +S  S  E   S S E

--------------------------------
--------------------------------

--------------------------------
--------------------------------

--------------------------------
--------------------------------

-0----(0)--0-(0)-0--0---0-0-0---
-0----(0)--0-(0)-0--0---0-0-0---

-0----(0)--0-(0)-0--0---0-0-0---
-0----(0)--0-(0)-0--0---0-0-0---

-0----(0)--0-(0)-0--0---0-0-0---
-0----(0)--0-(0)-0--0---0-0-0---



  S  S S  S S S  S S S S S S   S  S S  S S S  S S S S S S

----------------------------
-------------------------------

----------------------------
-------------------------------

------7h10p9p7-10p0-9p0-7p0-
------7h10p9p7-10p0-9p0-7p0----

-7h10-----------------------
-7h10--------------------------

----------------------------
-------------------------------

----------------------------
-------------------------------



 S  S S  S S S  S S S S S S   S  S S  S S S  S S S S S S

----------------------------
-------------------------------

----------------------------
-------------------------------

----------------------------
-------------------------------

-8--8-8--8-8-8--8-8-8-8-8-8-
-8--8-8--8-8-8--8-8-8-8-8-8----

-8--8-8--8-8-8--8-8-8-8-8-8-
-8--8-8--8-8-8--8-8-8-8-8-8----

-8--8-8--8-8-8--8-8-8-8-8-8-
-8--8-8--8-8-8--8-8-8-8-8-8----



    Q=180
   4/4
                 PM----------------------------------------------

    W          E E E E S S E S S E   E E H.        E E E E E E E E

-----------
---------------------
-------------
-----------------


o----------
---------------------
-------------
-----------------


-----------
---------------------
-------------
-----------------


--0--------
---0-0-0-0-0-0-0-0-0-
-0-0---------
---0-0-----0-0---


o-0--------
---0-0-0-0-0-0-0-0-0-
-0-0---------
---0-0-----0-0---


--0--------
---0-0-0-0-0-0-0-0-0-
-0-0---------
---0-0-----0-0---



               PM----------------------

  W          E E E E S S E S S E   E E H.        W

----------
---------------------
-------------
-------


----------
---------------------
-------------
------o


----------
---------------------
-------------
-------


-0--------
---0-0-0-0-0-0-0-0-0-
-0-0---------
-------


-0--------
---0-0-0-0-0-0-0-0-0-
-0-0---------
------o


-0--------
---0-0-0-0-0-0-0-0-0-
-0-0---------
-------



  Wx8

--------

--------

--------

--------

--------

--------



    Gtr III
     E  E  E  E  Q   E  E    E  E  E  E  E  E  E E

------------------------
------------------------


o----10--------------10-
-13-10-11----10---------


--12----12-10-12--12----
----------12----10-12-9-


------------------------
------------------------


o-----------------------
------------------------


------------------------
------------------------



   Gtr IV

    E  E  E  E  Q   E  E    E  E  E  E  E  E  E E

------------------------
------------------------


o-----------------------
-10---------------------


---9-10--9--7--9---9-10-
-----9-10--7--9-----7---


------------------------
----------------10----7-


o-----------------------
------------------------


------------------------
------------------------



   E  E  E  E  Q   E  E    E  E  E  E  E  E  E E   4x

-----------------------
--------------------------


----10--------------10-
-13-10-11----10----------o


-12----12-10-12--12----
----------12----10-12-9---


-----------------------
--------------------------


-----------------------
-------------------------o


-----------------------
--------------------------



  E  E  E  E  Q   E  E    E  E  E  E  E  E  E E   4x

-----------------------
--------------------------


-----------------------
-10----------------------o


--9-10--9--7--9---9-10-
-----9-10--7--9-----7-----


-----------------------
----------------10----7---


-----------------------
-------------------------o


-----------------------
--------------------------



   2/2
    Gtr V
    W                 +W

------------------
-------------------


o-----------------
-------------------


--7---------------
-(7)---------------


------------------
-------------------


o-----------------
-------------------


------------------
-------------------



   Gtr I

   E E E E E E E E    E  E E E E E E E

------------------
-------------------


o-----------------
-------------------


--7-7-7-7-7-7-7-7-
--7--7-7-7-7-7-7-7-


------------------
-------------------


o-5-5-5-5-5-5-5-5-
--5--5-5-5-5-5-5-5-


------------------
-------------------



   Gtr II

   E E E E E E E E    E  E E E E E E E

------------------
-------------------


o-----------------
-------------------


------------------
-------------------


--0-0-0-0-0-0-0-0-
--0--0-0-0-2-2-2-2-


o-0-0-0-0-0-0-0-0-
--0--0-0-0-2-2-2-2-


--0-0-0-0-0-0-0-0-
--0--0-0-0-2-2-2-2-



   W                         W

-------------------------
-------------------------

-------------------------
-10----------------------

-10----------------------
-------------------------

-------------------------
-------------------------

-------------------------
-------------------------

-------------------------
-------------------------



  E  E  E  E  E  E  E  E    E  E  E  E  E  E  E  E

-------------------------
-------------------------

-------------------------
-------------------------

-10-10-10-10-10-10-10-10-
-10-10-10-10-10-10-10-10-

-------------------------
-------------------------

--8--8--8--8--8--8--8--8-
--8--8--8--8--8--8--8--8-

-------------------------
-------------------------



  E  E  E  E  E  E  E  E    E  E  E  E  E  E  E  E

-------------------------
-------------------------

-------------------------
-------------------------

-------------------------
-------------------------

--3--3--3--3--3--3--3--3-
--3--3--3--3--3--3--3--3-

--3--3--3--3--3--3--3--3-
--3--3--3--3--3--3--3--3-

--3--3--3--3--3--3--3--3-
--3--3--3--3--3--3--3--3-



   W                        +W

-------------------------
--------------------------

--8----------------------
-(8)----------------------

-------------------------
--------------------------

-------------------------
--------------------------

-------------------------
--------------------------

-------------------------
--------------------------



  E  E  E  E  E  E  E  E    E   E  E  E  E  E  E  E

-------------------------
--------------------------

-------------------------
--------------------------

-10-10-10-10-10-10-10-10-
-10--10-10-10-10-10-10-10-

-------------------------
--------------------------

--8--8--8--8--8--8--8--8-
--8---8--8--8--8--8--8--8-

-------------------------
--------------------------



  E  E  E  E  E  E  E  E    E   E  E  E  E  E  E  E

-------------------------
--------------------------

-------------------------
--------------------------

-------------------------
--------------------------

--8--8--8--8--8--8--8--8-
--8---8--8--8--8--8--8--8-

--8--8--8--8--8--8--8--8-
--8---8--8--8--8--8--8--8-

--8--8--8--8--8--8--8--8-
--8---8--8--8--8--8--8--8-



   W                         +W                        4x

-------------------------
----------------------------


-------------------------
---------------------------o


-10----------------------
-(10)-----------------------


-------------------------
----------------------------


-------------------------
---------------------------o


-------------------------
----------------------------



  E  E  E  E  E  E  E  E     E   E  E  E  E  E  E  E  4x

-------------------------
----------------------------


-------------------------
---------------------------o


-10-10-10-10-10-10-10-10-
--10--10-10-10-10-10-10-10--


-------------------------
----------------------------


--8--8--8--8--8--8--8--8-
---8---8--8--8--8--8--8--8-o


-------------------------
----------------------------



  E  E  E  E  E  E  E  E     E   E  E  E  E  E  E  E  4x

-------------------------
----------------------------


-------------------------
---------------------------o


-------------------------
----------------------------


--8--8--8--8--8--8--8--8-
---8---8--8--8--8--8--8--8--


--8--8--8--8--8--8--8--8-
---8---8--8--8--8--8--8--8-o


--8--8--8--8--8--8--8--8-
---8---8--8--8--8--8--8--8--



   4/4
     E  E  E  E  E  E  E  E    E  E  E  E   E        E  E  E

--------------------------
--------------------------------


o-------------------------
--------------------------------


--10-10-14-14-14-14-10-10-
-14-14-14-14--14-------14-14-14-


--------------------------
--------------------------------


o--8--8-12-12-12-12--8--8-
-12-12-12-12--12-------12-12-12-


--------------------------
--------------------------------



    Q     E  E  E  E  Q       E  E  Q      H

--------------------------
--------------------------------


o-------------------------
--------------------------------


--------10-10-10-10-------
-10-10-------[12]b13.5----------


--------------------------
--------------------------------


o--------8--8--8--8-------
--8--8--------------------------


--------------------------
--------------------------------



    PM-------------------------------------------------------

    E  E  Q     Q     E  E    Q     E  E   H

--------------------------
--------------------------------


o-------------------------
--------------------------------


--------------------------
--------------------------------


---0--0--------------0--0-
--------0--0--------------------


o--0--0--------------0--0-
--------0--0--------------------


---0--0--------------0--0-
--------0--0--------------------



   E  E  E  E  E  E  E  E    E  E  E  E   E        E  E  E

-------------------------
---------------------------------


-------------------------
--------------------------------o


-10-10-14-14-14-14-10-10-
-14-14-14-14--14-------14-14-14--


-------------------------
---------------------------------


--8--8-12-12-12-12--8--8-
-12-12-12-12--12-------12-12-12-o


-------------------------
---------------------------------



  Q     E  E  E  E  Q       E  E  Q      H

-------------------------
---------------------------------


-------------------------
--------------------------------o


-------10-10-10-10-------
-10-10-------[12]b13.5-----------


-------------------------
---------------------------------


--------8--8--8--8-------
--8--8--------------------------o


-------------------------
---------------------------------



-------------------------------------------------------

  E  E  Q     Q     E  E    Q     E  E   E        E  E  E

-------------------------
---------------------------------


-------------------------
--------------------------------o


-------------------------
---------------------------------


--0--0--------------0--0-
--------0--0---0--------0--0--0--


--0--0--------------0--0-
--------0--0---0--------0--0--0-o


--0--0--------------0--0-
--------0--0---0--------0--0--0--



   W           +W            +W            +W

-----------
-------------
-------------
---------*

-----------
-------------
-------------
---------*

-10--------
-(10)--------
-(10)--------
-(10)----*

-----------
-------------
-------------
---------*

--8--------
--(8)--------
--(8)--------
--(8)----*

-----------
-------------
-------------
---------*



  W           +W            +W            +W

-----------
-------------
-------------
---------*

-----------
-------------
-------------
---------*

-----------
-------------
-------------
---------*

--0--------
--(0)--------
--(0)--------
--(0)----*

--0--------
--(0)--------
--(0)--------
--(0)----*

--0--------
--(0)--------
--(0)--------
--(0)----*


_________________________________________________________________________________




_________________________________________________________________________________


---------------------------------------------------------------------------------
			************************************
			* 2.GUYS LIKE YOU MAKE US LOOK BAD *
			************************************
---------------------------------------------------------------------------------

  Gtrs I, II
                                
-3-
                                 
-3-

  W  S  S  S  S S S  S  S  S  S E E E   E  S  S  S  S S S  S  S  S  S E E E

-------------------------------------
-------------------------------------

-------------------------------------
-------------------------------------

---10-12-10-12-----10-12-10-12-------
---10-12-10-12-----10-12-10-12-------

-0-------------0-0-------------0-0-0-
-0-------------0-0-------------0-0-0-

-0-------------0-0-------------0-0-0-
-0-------------0-0-------------0-0-0-

-0-------------0-0-------------0-0-0-
-0-------------0-0-------------0-0-0-



                                
-3-

  E  S  S  S  S S S  S  S  S  S E E E   S S S S S S S S S S S S  Q

-------------------------------------
-------------------------------

-------------------------------------
-------------------------------

---10-12-10-12-----10-12-10-12-------
-------------------------------

-0-------------0-0-------------0-0-0-
-0-0---0-0---0-0---0-0---------

-0-------------0-0-------------0-0-0-
-0-0---0-0---0-0---0-0---------

-0-------------0-0-------------0-0-0-
-0-0---0-0---0-0---0-0---------



                                
-3-
                                 
-3-

  E  S  S  S  S S S  S  S  S  S E E E   E  S  S  S  S S S  S  S  S  S E E E

-------------------------------------
-------------------------------------

-------------------------------------
-------------------------------------

---10-12-10-12-----10-12-10-12-------
---10-12-10-12-----10-12-10-12-------

-0-------------0-0-------------0-0-0-
-0-------------0-0-------------0-0-0-

-0-------------0-0-------------0-0-0-
-0-------------0-0-------------0-0-0-

-0-------------0-0-------------0-0-0-
-0-------------0-0-------------0-0-0-



                                
-3-

  E  S  S  S  S S S  S  S  S  S E E E   S S S S S S S S S S S S Q

-------------------------------------
----------------------------

-------------------------------------
----------------------------

---10-12-10-12-----10-12-10-12-------
----------------------------

-0-------------0-0-------------0-0-0-
-0-0---0-0---0-0---0-0------

-0-------------0-0-------------0-0-0-
-0-0---0-0---0-0---0-0------

-0-------------0-0-------------0-0-0-
-0-0---0-0---0-0---0-0------



    Gtr I
    S S Q        S S S  S S S Q          S S Q        S S S  S S S  Q

-------------------------------------
-------------------------------------


o------------------------------------
-------------------------------------


-------------------------------------
-------------------------------------


--0-0----------0-0----0-0------------
-0-0----------0-0----0-0---10--------


o-0-0----------0-0----0-0------------
-0-0----------0-0----0-0---10--------


--0-0----------0-0----0-0------------
-0-0----------0-0----0-0---10--------



   Gtr II

   S S S  S S S S S S  S S S S S  S S   S S S  S S S S S S  S S S  S S  S S

-------------------------------------
-------------------------------------


o-----8h10p8-------8h10p8------------
-----8h10p8-------8h10p8-------------


--7h9--------9-7h9--------9-9p7-10p7-
-7h9--------9-7h9--------9--9p7-10p7-


-------------------------------------
-------------------------------------


o------------------------------------
-------------------------------------


-------------------------------------
-------------------------------------



  S S S  S S S S S S  S S S S S  S S   S S S  S S S S S S  S S S S S  S S   3x

------------------------------------
--------------------------------------


------------------------------------
-------------------------------------o


------------------------------------
--------------------------------------


-8-8-8--8-8-8-8-8-8--8-8-8-8-8--8-8-
-5-5-5--5-5-5-5-5-5--5-5-5-5-5--5-5---


-8-8-8--8-8-8-8-8-8--8-8-8-8-8--8-8-
-5-5-5--5-5-5-5-5-5--5-5-5-5-5--5-5--o


-8-8-8--8-8-8-8-8-8--8-8-8-8-8--8-8-
-5-5-5--5-5-5-5-5-5--5-5-5-5-5--5-5---



 S S S  S S S S S S  S S S S S  S S   S S S  S S S S S S  S S S S S  S S   3x

------------------------------------
--------------------------------------


-----8h10p8-------8h10p8------------
-----8h10p8-------8h10p8-------------o


-7h9--------9-7h9--------9-9p7-10p7-
-7h9--------9-7h9--------9-9p7-10p7---


------------------------------------
--------------------------------------


------------------------------------
-------------------------------------o


------------------------------------
--------------------------------------



  W                                 W

---------------------------------
---------------------------------

---------------------------------
---------------------------------

---------------------------------
---------------------------------

-0-------------------------------
-0-------------------------------

-0-------------------------------
-0-------------------------------

-0-------------------------------
-0-------------------------------



 S S S S S S S S S S S S S S S S   S S S S S S S S S S S S S S S S

---------------------------------
---------------------------------

---------------------------------
---------------------------------

---------------------------------
---------------------------------

-0-0-7p0-3p0-0-5p0-3p0-0-2p0-3p0-
-0-0-7p0-3p0-0-5p0-3p0-0-2p0-3p0-

---------------------------------
---------------------------------

---------------------------------
---------------------------------



  W                                 H.                        Q

---------------------------------
---------------------------5b7r=====


---------------------------------
------------------------------------


---------------------------------
------------------------------------


-0-------------------------------
-0----------------------------------


-0-------------------------------
-0----------------------------------


-0-------------------------------
-0----------------------------------



 S S S S S S S S S S S S S S S S   S  S S S S S S S S S S S  Q

---------------------------------
--------------------------10b12r====


---------------------------------
------------------------------------


---------------------------------
------------------------------------


-0-0-7p0-3p0-0-5p0-3p0-0-2p0-3p0-
-0--0-7p0-3p0-0-5p0-3p0-0-----------


---------------------------------
------------------------------------


---------------------------------
------------------------------------



  PM-----------------------------------------------------------------
  S S S S S S S S S S S S S S S S   S S S S S S S S S S S S S S S S

---------------------------------
---------------------------------

---------------------------------
---------------------------------

---------------------------------
---------------------------------

---------------------------------
---------------------------------

-3-3-3-3-3-3-3-3-3-3-3-3-3-3-3-3-
-5-5-5-5-5-5-5-5-8-8-8-8-8-8-8-8-

-3-3-3-3-3-3-3-3-3-3-3-3-3-3-3-3-
-5-5-5-5-5-5-5-5-8-8-8-8-8-8-8-8-



 PM-----------------------------------------------------------------

 S S S S S S S S S S S S S S S S   S S S S S S S S S S S S S S S S

---------------------------------
---------------------------------

---------------------------------
---------------------------------

---------------------------------
---------------------------------

---------------------------------
---------------------------------

-3-3-3-3-3-3-3-3-3-3-3-3-3-3-3-3-
-5-5-5-5-5-5-5-5-8-8-8-8-8-8-8-8-

-3-3-3-3-3-3-3-3-3-3-3-3-3-3-3-3-
-5-5-5-5-5-5-5-5-8-8-8-8-8-8-8-8-



 -----------------------------------------------------------------

  S S S S S S S S S S S S S S S S   S S S S S S S S S S S S S S S S

---------------------------------
------------------------------------

---------------------------------
------------------------------------

---------------------------------
------------------------------------

---------------------------------
------------------------------------

-0-0-0-0-0-0-0-0-0-0-0-0-0-0-0-0-
-0-0-0-0-0-0-0-0-0-0-0-0-0-0-0-0----

-0-0-0-0-0-0-0-0-0-0-0-0-0-0-0-0-
-0-0-0-0-0-0-0-0-0-0-0-0-0-0-0-0----



---
     PM--------------------------
     PM--------------------

 S S S S S S S S S S S S S S S S   S S S S S S S S S S S S S S S S

---------------------------------
------------------------------------

---------------------------------
------------------------------------

---------------------------------
------------------------------------

-----5p0-------------------------
-----5p0----------------------------

-0-0-----0-0-0-0-0-0-0-0-0-0-0-0-
-0-0-----0-0-0-0-0-0-0-0-0-0-0-0----

-0-0-----0-0-0-0-0-0-0-0-0-0-0-0-
-0-0-----0-0-0-0-0-0-0-0-0-0-0-0----



  PM----------------------------------------------

  S S S S S S S S S S S S S S S S   S S S S S S S S S S S S S S S S

---------------------------------
---------------------------------

---------------------------------
---------------------------------

---------------------------------
---------------------------------

---------------------------------
-----------------8-8-8-8-8-8-8-8-

-3-3-3-3-3-3-3-3-3-3-3-3-3-3-3-3-
-5-5-5-5-5-5-5-5-8-8-8-8-8-8-8-8-

-3-3-3-3-3-3-3-3-3-3-3-3-3-3-3-3-
-5-5-5-5-5-5-5-5-8-8-8-8-8-8-8-8-



 PM----------------------------------
     PM----

 S S S S S S S S S S S S S S S S   S S S S S S S S S S S S S S S S

---------------------------------
---------------------------------

---------------------------------
---------------------------------

---------------------------------
---------------------------------

---------------------------------
-----5p0---------8p0-7p0-5p0-7p0-

-3-3-3-3-3-3-3-3-3-3-3-3-3-3-3-3-
-5-5-----5-5-5-5-----------------

-3-3-3-3-3-3-3-3-3-3-3-3-3-3-3-3-
-5-5-----5-5-5-5-----------------



  Gtr III
                       PM-----------------

                       
--3--
 
-3--
 
-3-

  S S Q.           S S S S   S S  S S S S S   S S Q.               S S Q.

-------------------------------------------
--------------------------------


-------------------------------------------
--------------------------------


-------------------------------------------
--------------------------------


-0-0--------------0-0----------------------
-0-0------------------0-0-------


-0-0--------------0-0-0-0---0-0--0-0-0-0-0-
-0-0------------------0-0-------


-0-0--------------0-0-0-0---0-0--0-0-0-0-0-
-0-0------------------0-0-------



 Gtr IV

     PM-------------
                            PM-------------

     
-3--
 
-3-
                                
-3--
 
-3-

 S S S  S S S S S S S S   S   Q.             S S S  S S S S S S S S S

-------------------------------------------
--------------------------------


-------------------------------------------
--------------------------------


-------------------------------------------
--------------------------------


-0-0------------------0---0----------------
-0-0------------------0-0-------


-0-0-0--0-0-0-0-0-0-0-0---0----------------
-0-0-0--0-0-0-0-0-0-0-0-0-------


-0-0-0--0-0-0-0-0-0-0-0---0----------------
-0-0-0--0-0-0-0-0-0-0-0-0-------



    Gtr I
    S S Q        S S S  S S S Q          S S Q        S S S  S S S  Q

-------------------------------------
-------------------------------------


o------------------------------------
-------------------------------------


-------------------------------------
-------------------------------------


--0-0----------0-0----0-0------------
-0-0----------0-0----0-0---10--------


o-0-0----------0-0----0-0------------
-0-0----------0-0----0-0---10--------


--0-0----------0-0----0-0------------
-0-0----------0-0----0-0---10--------



   Gtr II

   S S S  S S S S S S  S S S S S  S S   S S S  S S S S S S  S S S  S S  S S

-------------------------------------
-------------------------------------


o-----8h10p8-------8h10p8------------
-----8h10p8-------8h10p8-------------


--7h9--------9-7h9--------9-9p7-10p7-
-7h9--------9-7h9--------9--9p7-10p7-


-------------------------------------
-------------------------------------


o------------------------------------
-------------------------------------


-------------------------------------
-------------------------------------



  S S S  S S S S S S  S S S S S  S S   S S S  S S S S S S  S S S S S  S S   3x

------------------------------------
--------------------------------------


------------------------------------
-------------------------------------o


------------------------------------
--------------------------------------


-8-8-8--8-8-8-8-8-8--8-8-8-8-8--8-8-
-5-5-5--5-5-5-5-5-5--5-5-5-5-5--5-5---


-8-8-8--8-8-8-8-8-8--8-8-8-8-8--8-8-
-5-5-5--5-5-5-5-5-5--5-5-5-5-5--5-5--o


-8-8-8--8-8-8-8-8-8--8-8-8-8-8--8-8-
-5-5-5--5-5-5-5-5-5--5-5-5-5-5--5-5---



 S S S  S S S S S S  S S S S S  S S   S S S  S S S S S S  S S S S S  S S   3x

------------------------------------
--------------------------------------


-----8h10p8-------8h10p8------------
-----8h10p8-------8h10p8-------------o


-7h9--------9-7h9--------9-9p7-10p7-
-7h9--------9-7h9--------9-9p7-10p7---


------------------------------------
--------------------------------------


------------------------------------
-------------------------------------o


------------------------------------
--------------------------------------



  Gtr V
  W            +W           W            +W

------------
------------
------------
--------

------------
------------
------------
--------

------------
------------
------------
--------

-8----------
-(8)--------
-5----------
-(5)----

-8----------
-(8)--------
-5----------
-(5)----

-8----------
-(8)--------
-5----------
-(5)----



 Gtr VI

 H.      Q    +W           H.      Q    +W

------------
------------
------------
--------

---------6--
-(6)--------
---------6--
-(6)----

---------9--
-(9)--------
---------9--
-(9)----

---------0--
-(0)--------
---------0--
-(0)----

------------
------------
------------
--------

------------
------------
------------
--------



  W            +W           W          +W

------------
------------
----------
--------


------------
------------
----------
--------


------------
------------
----------
--------


-8----------
-(8)--------
-5--------
-(5)----


-8----------
-(8)--------
-5--------
-(5)----


-8----------
-(8)--------
-5--------
-(5)----



 H.      Q    +W           W           W

------------
------------
----------
--------


---------6--
-(6)--------
----------
--------


---------9--
-(9)--------
----------
--------


---------0--
-(0)--------
----------
--------


------------
------------
----------
--------


------------
------------
----------
--------



    W                       +W

------------------------
----------------------


o-----------------------
----------------------


------------------------
----------------------


--0---------------------
-(0)------------------


o-0---------------------
-(0)------------------


--0---------------------
-(0)------------------



   E  E E  E  E  E  E  E    E   E  E  E  Q   Q

------------------------
--------------13--13--


o-----------------------
-----10h13p10---------


--9h10p9----------10h12-
-10-------------------


---------10h12p10-------
----------------------


o-----------------------
----------------------


------------------------
----------------------



  W                      +W

---------------------
---------

---------------------
---------

---------------------
---------

-3-------------------
--(3)----

-3-------------------
--(3)----

-3-------------------
--(3)----



 E  E E  E  E  E  Q     +W

---------------------
---------

---------------------
---------

-9h10p9----------10--
-(10)----

--------10h12p10-----
---------

---------------------
---------

---------------------
---------



  W                       +W

-----------------------
----------------------

-----------------------
----------------------

-----------------------
----------------------

-0---------------------
-(0)------------------

-0---------------------
-(0)------------------

-0---------------------
-(0)------------------



 E  E E  E  E  E  E  E    E   E  E  E  Q   Q

-----------------------
--------------13--13--

-----------------------
-----10h13p10---------

-9h10p9----------10h12-
-10-------------------

--------10h12p10-------
----------------------

-----------------------
----------------------

-----------------------
----------------------



  W                      +W

---------------------
----------


---------------------
---------o


---------------------
----------


-3-------------------
--(3)-----


-3-------------------
--(3)----o


-3-------------------
--(3)-----



 E  E E  E  E  E  Q     +W

---------------------
----------


---------------------
---------o


-9h10p9--------------
----------


--------10h12p10-----
----------


-----------------10--
-(10)----o


---------------------
----------



                                                      6/4
     W                 +W            W                 +W.

-------------------
------------
------------------
---------


o------------------
------------
------------------
--------o


-------------------
------------
------------------
---------


---3---------------
-(3)--------
--5---------------
-(5)-----


o--3---------------
-(3)--------
--5---------------
-(5)----o


---3---------------
-(3)--------
--5---------------
-(5)-----



    E  E  Q  Q   Q                  E  E  Q  Q   Q

-------------------
------------
------------------
---------


o----10------------
------------
----10------------
--------o


--10----10--9--10--
------------
-10----10--9--10--
---------


-------------------
------------
------------------
---------


o------------------
------------
------------------
--------o


-------------------
------------
------------------
---------


_________________________________________________________________________________



_________________________________________________________________________________


---------------------------------------------------------------------------------
				*************
				* 3.HIGINIA *
				*************
---------------------------------------------------------------------------------


/***************************************************************************/
 This is my own version of this song, & I tabbed this because I'm bored & I
 really liked the song! If it looks like the same on the previous tabs
 submitted, I did not copy any of them. I just discovered blessthefall this
 December 2007. (because I'm from the Philippines :) ) \m/
/***************************************************************************/
Tuning    : Drop D

Legend:
 - G1 = Guitar 1
 - G2 = Guitar 2
 - h  = hammer on
 - p  = pull off
 - *  = mute
 - и  = palm mute
 - ~  = let ring
 - ^  = bend
 - /  = slide up
 - \  = slide down

/***************************************************************************/
INTRO:
{
  
  e
--------------------------------------------------------------------

  B
--------------------------------------------------------------------

  G
--------------5-----------------------------------------------------

  D
-8p7p5--------------------------------------------------------------

  A
-------h8p7h8---8p7p0h7h8-------------------------------------------

  D
--------------------------------------------------------------------

}

/***************************************************************************/
CHORUS:
{
  
  e
--------------------------------------------------------------------

  B
--------------------------------------------------------------------

  G
--------10-10-10-10/12-12-12\7-77777/99-------------5---------------

  D
-000000---------------------------------8-7-5-----------------------

  A
-000000--8--8--9--9/10-10-10\5-55555/77-------8-7-8---8p7p0h7h8-----

  D
-000000-------------------------------------------------------------


  
  e
--------------------------------------------------------------------

  B
--------------------------------------------------------------------

  G
--------------------------------------------------------------------

  D
-000000000000000-55555555555555-------------------------------------

  A
-000000000000000-55555555555555-------------------------------------

  D
-000000000000000-55555555555555-------------------------------------


  
  e
--------------------------------------------------------------------

  B
--------------------------------------------------------------------

  G
--------------------------------------------------------------------

  D
-1010101010101010101010--10*10*10*-10101010101010101010101010-------

  A
--8-8-8-8-8-8-8-8-8-8-8---8*-8*-8*--8-8-8-8-8-8-8-8-8-8-8-8-8-------

  D
--8-8-8-8-8-8-8-8-8-8-8---8*-8*-8*--8-8-8-8-8-8-8-8-8-8-8-8-8-------


   /*Quick*/
  { e
--------------------------------------------------------------------

    B
--------------------------------------------------------------------

    G
-0-10-9-0-12-0-10-0-9-0-9h10p9--0-10-9-0-12-0-9h10p9-------9-10-----

    D
-----------------------------------------------------10-12----------

    A
--------------------------------------------------------------------

    D
--------------------------------------------------------------------


    e
--------------------------------------------------------------------

    B
--------------------------------------------------------------------

    G
-0-10-9-0-12-0-10-0-9-0-9h10p9--0-10-9-0-12-0-10-0-9h10u9-----------

    D
----------------------------------------------------------10-12-----
  
    A
--------------------------------------------------------------------

    D
--------------------------------------------------------------------

  }
  
  
  e
----------------------------------------------------------------------

  B
----------------------------------------------------------------------

  G
--------10-10\5-5/7-7-7/9-9-9-9-------------5-------------------------

  D
-000000--------------------------8-7-5--------------------------------

  A
-000000--8--8\3-3/5-5-5/7-7-7-7--------8-7-8--8-7-0-7-8---------------

  D
-000000---------------------------------------------------------------


  
  e
--------------------------------------------------------------------

  B
--------------------------------------------------------------------

  G
--------------------------------------------------------------------

  D
-000000000000000-55555555555555-------------------------------------

  A
-000000000000000-55555555555555-------------------------------------

  D
-000000000000000-55555555555555-------------------------------------


  
  e
--------------------------------------------------------------------

  B
--------------------------------------------------------------------

  G
--------------------------------------------------------------------

  D
-1010101010101010101010--10*10*10*-10101010101010101010101010-------

  A
--8-8-8-8-8-8-8-8-8-8-8---8*-8*-8*--8-8-8-8-8-8-8-8-8-8-8-8-8-------

  D
--8-8-8-8-8-8-8-8-8-8-8---8*-8*-8*--8-8-8-8-8-8-8-8-8-8-8-8-8-------


   /*Quick*/
  { e
--------------------------------------------------------------------

    B
--------------------------------------------------------------------

    G
-0-10-9-0-12-0-10-0-9-0-9h10p9--0-10-9-0-12-0-9h10p9-------9-10-----

    D
-----------------------------------------------------10-12----------

    A
--------------------------------------------------------------------

    D
--------------------------------------------------------------------


    e
--------------------------------------------------------------------

    B
--------------------------------------------------------------------

    G
-0-10-9-0-12-0-10-0-9-0-9h10p9--0-10-9-0-12-0-10-0-9h10u9-----------

    D
----------------------------------------------------------10-12-----
  
    A
--------------------------------------------------------------------

    D
--------------------------------------------------------------------

  }

}

/***************************************************************************/
VERSE:
{ 
  e
--------------------------------------------------------------------

  B
--------------------------------------------------------------------

  G
--------------------------------------------------------------------

  D
--------------------------------------------------------------------

  A
-555555555555777777888888-555555555555777777888888------------------

  D
--------------------------------------------------------------------

      ииииииииииииииииииииииии ииииииииииииииииииииииии

  
  e
--------------------------------------------------------------------

  B
--------------------------------------------------------------------

  G
--------------------------------------------------------------------

  D
-555555555555555555555555-888888888888888888888888------------------

  A
-555555555555555555555555-888888888888888888888888------------------

  D
-555555555555555555555555-888888888888888888888888------------------

      ииииииииииииииииииииииии ииииииииииииииииииииииии

  
  e
--------------------------------------------------------------------

  B
--------------------------------------------------------------------

  G
--------------------------------------------------------------------

  D
-000000-0-000-0-000000-0-000-0-000000-0-000-0-000000-0-000-0--------

  A
-000000-0-000-0-000000-0-000-0-000000-0-000-0-000000-0-000-0--------

  D
-000000-0-000-0-000000-0-000-0-000000-0-000-0-000000-0-000-0--------

      ииииии   иии   ииииии   иии   ииииии   иии   ииииии   иии

  
  e
--------------------------------------0~-----------------------------

  B
--------------------------------------0~-----------------------------

  G
--------------------------------------0~-----------------------------

  D
--------------------------------------8~-----------------------------

  A
-555555555555777777888888-55555555555-8~-----------------------------

  D
--------------------------------------8~-----------------------------

      ииииииииииииииииииииииии ииииииииииииииииииииииии

  
  e
---------------------------------------0~---------------------------

  B
---------------------------------------0~---------------------------

  G
---------------------------------------0~---------------------------

  D
-555555555555555555555555-888888888888-8~---------------------------
  
  A
-555555555555555555555555-888888888888-8~---------------------------

  D
-555555555555555555555555-888888888888-8~---------------------------

      ииииииииииииииииииииииии ииииииииииии

  
  e
--------------------------------------------------------------------

  B
--------------------------------------------------------------------

  G
--------------------------------------------------------------------

  D
-000-0000-0000-00-0-0-000-0000-0000-00-0-0--------------------------

  A
-000-0000-0000-00-0-0-000-0000-0000-00-0-0--------------------------

  D
-000-0000-0000-00-0-0-000-0000-0000-00-0-0--------------------------

      иии ииии ииии ии и и иии ииии ииии ии и и

  e
--------------------------------------------------------------------

  B
--------------------------------------------------------------------

  G
--------------------------------------------------------------------

  D
-000-0000-0000-00-0-0-000-0000-0000-00-0-0*-------------------------

  A
-000-0000-0000-00-0-0-000-0000-0000-00-0-0*-------------------------

  D
-000-0000-0000-00-0-0-000-0000-0000-00-0-0*-------------------------

      иии ииии ииии ии и и иии ииии ииии ии и и
}

/***************************************************************************/

  REPEAT CHORUS RIFF

/***************************************************************************/
BRIDGE:
{ 
  e
--------------------------------------------------------------------

  B
--------------------------------------------------------------------

  G
--------------------------------------------------------------------

  D
-0~-----------------------------------------------------------------

  A
-0~-----------------------------------------------------------------

  D
-0~-----------------------------------------------------------------


  
  { e
------------------------------------------------------------------

    B
------------------------------------------------------------------

    G
------------------------------------------------------------------

    D
-00-------00--------00---------00---------------------------------

    A
-00-7*7/8-00-8*8/10-00-10*10\8-00-8-7b----------------------------

    D
-00-------00--------00---------00---------------------------------

        ии       ии        ии         ии

    e
------------------------------------------------------------------

    B
------------------------------------------------------------------

    G
------------------------------------------------------------------

    D
-00-------00--------00---------00-8-7b----------------------------

    A
-00-7*7/8-00-8*8/10-00-10*10\8-00---------------------------------

    D
-00-------00--------00---------00---------------------------------

        ии       ии        ии         ии

    e
------------------------------------------------------------------

    B
------------------------------------------------------------------

    G
------------------------------------------------------------------

    D
-00-------00--------00---------00---------------------------------

    A
-00-7*7/8-00-8*8/10-00-10*10\8-00-0h7h8-0h8h10--------------------

    D
-00-------00--------00---------00---------------------------------

        ии       ии        ии         ии
  }

  
  e
--------------------------------------------------------------------

  B
--------------------------------------------------------------------

  G
--------------------------------------------------------------------

  D
-~-----------------------------888888-------------------------------

  A
-~-----------------------------888888-------------------------------

  D
-~-----------------------------888888-------------------------------

                                    ииииии

  
  e
--------------------------------------------------------------------

  B
--------------------------------------------------------------------

  G
--------------------------------------------------------------------

  D
-00-------00--------00---------8-7-5--------------------------------

  A
-00-7*7/8-00-8*8/10-00-10*10\8-------8-7b---------------------------

  D
-00-------00--------00----------------------------------------------

      ии       ии        ии

  
  e
--------------------------------------------------------------------
 \
  B
--------------------------------------------------------------------
  

  G
--------------------------------------------------------------------
  

  D
-00-0-0-0*------00-0-0---------88-8-8-8-7-5-7-5---88-8-8-8-7-5------
  

  A
-00-0-0-0*------00-0-0-5*5*5/7-88-8-8-----------8-88-8-8-------8-7b-
  

  D
-00-0-0-0*------00-0-0---------88-8-8-------------88-8-8------------
  

      ии и и и       ии и и         ии и и             ии и и                \ (2x)
                                                                         /
  e
--------------------------------------------------------------------
  

  B
--------------------------------------------------------------------
  

  G
--------------------------------------------------------------------
  

  D
-00-0-0---------00-0-0---------88-8-8-8*----------88-8-8-8-7-5------
  

  A
-00-0-0-7*7*7/8-00-0-0-7*7*7/8-88-8-8-8*----------88-8-8-------8-7b-
  

  D
-00-0-0---------00-0-0---------88-8-8-8*----------88-8-8------------
  

      ии и и         ии и и         ии и и и           ии и и              /

  
  e
--------------------------------------------------------------------
 \
  B
--------------------------------------------------------------------
  

  G
--------------------------------------------------------------------
  

  D
-00-0-0---------00-0-0---------88-8-8-8-7-5-7-5---88-8-8-8-7-5------
  

  A
-00-0-0-5*5*5/7-00-0-0-5*5*5/7-88-8-8-----------8-88-8-8-------8-7b-
  

  D
-00-0-0---------00-0-0---------88-8-8-------------88-8-8------------
  

      ии и и         ии и и         ии и и             ии и и                \ (2x)
                                                                         /
  e
---------------------------------------------------------------------
 

  B
---------------------------------------------------------------------
 

  G
---------------------------------------------------------------------
 

  D
-00-0-0---------00-0-0---------88-8-8------------0-88-8-8-8-7-5------
 

  A
-00-0-0-7*7*7/8-00-0-0-7*7*7/8-88-8-8-10-8-7-8-7---88-8-8-------8-7b-
 

  D
-00-0-0---------00-0-0---------88-8-8--------------88-8-8------------
 

      ии и и         ии и и         ии и и              ии и и             /
}

/***************************************************************************/
OUTRO
{ 
  e
--------------------------------------------------------------------

  B
--------------------------------------------------------------------

  G
--------------------------------------------------------------------

  D
-000-0000-0000-00-0-0-000-0000-0000-00-0-0--------------------------

  A
-000-0000-0000-00-0-0-000-0000-0000-00-0-0--------------------------

  D
-000-0000-0000-00-0-0-000-0000-0000-00-0-0--------------------------

      иии ииии ииии ии и и иии ииии ииии ии и и

  e
--------------------------------------------------------------------

  B
--------------------------------------------------------------------

  G
--------------------------------------------------------------------

  D
-000-0000-0000-00-0-0-000-0000-0000-00-0-0*-------------------------

  A
-000-0000-0000-00-0-0-000-0000-0000-00-0-0*-------------------------

  D
-000-0000-0000-00-0-0-000-0000-0000-00-0-0*-------------------------

      иии ииии ииии ии и и иии ииии ииии ии и и

_________________________________________________________________________________




_________________________________________________________________________________

---------------------------------------------------------------------------------
				***********************
				* 4.COULD TELL A LOVE *
				***********************
---------------------------------------------------------------------------------

  Gtr I
  E E E E E E E E   E E E E S S E E E   E E E E E E E E   E E E E E E E E

-----------------
-------------------
-----------------
-----------------

-----------------
-------------------
-----------------
-----------------

-----------------
-------------------
-----------------
-----------------

-0-0-7p0-8p0-0-5p
=0-7p0-0-5h7p5-----
-0-0-7p0-8p0-0-5p
=0-7p0-0-7p0-7p0-

-----------------
---------------8p5-
-----------------
-----------------

-----------------
-------------------
-----------------
-----------------



  E E E E E E E E   E E E E S S E E E   E E E E E E E E   E E E E H

-----------------
-------------------
-----------------
--------------

-----------------
-------------------
-----------------
--------------

-----------------
-------------------
-----------------
--------------

-0-0-7p0-8p0-0-5p
=0-7p0-0-5h7p5-----
-0-0-7p0-8p0-0-5p
=0-5p0--------

-----------------
---------------8p5-
-----------------
--------------

-----------------
-------------------
-----------------
--------------



    Gtr I
    E E  E  E  E  E  E  E    E  E  E  E  S S  E  E  E

------------------------
---------------------------


o-----------------------
---------------------------


------------------------
---------------------------


--0-0--7p=0--8p=0--0--5p
==0--7p=0--0--5h7p=5-------


o-----------------------
----------------------8p=5-


------------------------
---------------------------



   Gtr II

   Q    E  E  E  E  E  E    E  E  E  E  E    E  E  E

------------------------
---------------------------


o-----------------------
---------------------------


------10-10-10-10-10-10-
-10-10-10-10-10---10-10-10-


------------------------
---------------------------


o------8--8--8--8--8--8-
--8--8--8--8--8----8--8--8-


------------------------
---------------------------



   Gtr III

   E E  E  E  E  E  E  E    E  E  E  E  E    E  E  E

------------------------
---------------------------


o-----------------------
---------------------------


------------------------
---------------------------


--0-0--0--0--0--0--0--0-
--0--0--0--0--0----0--0--0-


o-0-0--0--0--0--0--0--0-
--0--0--0--0--0----0--0--0-


--0-0--0--0--0--0--0--0-
--0--0--0--0--0----0--0--0-



  E E  E  E  E  E  E  E    E  E  E  E  E  E  E  E  3x

-----------------------
--------------------------


-----------------------
-------------------------o


-----------------------
--------------------------


-0-0--7p=0--8p=0--0--5p
==0--7p=0--0--7p=0--7p=0--


-----------------------
-------------------------o


-----------------------
--------------------------



 Q    E  E  E  E  E  E    E  E  E  E  E  E  E  E  3x

-----------------------
--------------------------


-----------------------
-------------------------o


-----10-10-10-10-10-10-
-10-10-10-10-10-10-10-10--


-----------------------
--------------------------


------8--8--8--8--8--8-
--8--8--8--8--8--8--8--8-o


-----------------------
--------------------------



 E E  E  E  E  E  E  E    E  E  E  E  E  E  E  E  3x

-----------------------
--------------------------


-----------------------
-------------------------o


-----------------------
--------------------------


-8-8--8--8--8--8--8--8-
--8--8--8--8--8--8--8--8--


-8-8--8--8--8--8--8--8-
--8--8--8--8--8--8--8--8-o


-8-8--8--8--8--8--8--8-
--8--8--8--8--8--8--8--8--



  E E  E  E  E  E  E  E    E  E  E  E  S S  E  E  E

-----------------------
---------------------------

-----------------------
---------------------------

-----------------------
---------------------------

-0-0--7p=0--8p=0--0--5p
==0--7p=0--0--5h7p=5-------

-----------------------
----------------------8p=5-

-----------------------
---------------------------



 Q    E  E  E  E  E  E    E  E  E  E  E    E  E  E

-----------------------
---------------------------

-----------------------
---------------------------

-----10-10-10-10-10-10-
-10-10-10-10-10---10-10-10-

-----------------------
---------------------------

------8--8--8--8--8--8-
--8--8--8--8--8----8--8--8-

-----------------------
---------------------------



 E E  E  E  E  E  E  E    E  E  E  E  E    E  E  E

-----------------------
---------------------------

-----------------------
---------------------------

-----------------------
---------------------------

-0-0--0--0--0--0--0--0-
--0--0--0--0--0----0--0--0-

-0-0--0--0--0--0--0--0-
--0--0--0--0--0----0--0--0-

-0-0--0--0--0--0--0--0-
--0--0--0--0--0----0--0--0-



  E E E E E E E E   E  E E E E E  E E

-----------------
--------------------

-----------------
--------------------

-----------------
--------------------

-0-0-7p0-8p0-0-5p
=0--7p0-0-7p0--7p0--

-----------------
--------------------

-----------------
--------------------



 W                 H.            Q

-----------------
--------------------

-----------------
--------------------

-----------------
--------------10----

-----------------
--------------------

-----------------
---------------8----

-----------------
--------------------



 W                 H.            Q

-----------------
--------------------

-----------------
--------------------

-----------------
--------------------

-----------------
---------------0----

-----------------
---------------0----

-----------------
---------------0----



    Q   E   E  E  E  E  E   W

------------------------
----------------


o-----------------------
----------------


---------10-10-10-10-10-
----------------


------------------------
----------------


o---------8--8--8--8--8-
----------------


------------------------
----------------



   PM
                       PM
   PM------

                                   
-3-

   E E H.                  E E E E Q Q Q

------------------------
----------------


o-----------------------
----------------


------------------------
----------------


--0-0-------------------
---0-0---0-0-0--


o-0-0-------------------
---0-0---0-0-0--


--0-0-------------------
---0-0---0-0-0--



  1.,2.,3.
  W                 E E E  E  E  E  E  E  4x

----------------
------------------------


----------------
-----------------------o


----------------
-10-----10-10-10-10-10--


----------------
------------------------


----------------
--8------8--8--8--8--8-o


----------------
------------------------



-----
      PM
      PM-----------

 S S E H    E E    E E E  E  Q     Q     4x

----------------
------------------------


----------------
-----------------------o


----------------
------------------------


-0-0-0------0-0-
----0-0-----0-----0-----


-0-0-0------0-0-
----0-0-----0-----0----o


-0-0-0------0-0-
----0-0-----0-----0-----



  4.
  PM--

  S S E H.        W

---------------
----------
-

---------------
----------
-

---------------
----------
-

-0-0-0---------
----------
-

-0-0-0---------
----------
-

-0-0-0---------
----------
-



    E E E E E E E E   E E E E E E E E   E E E E E E E E   E E E E E E E E

------------------
-----------------
-----------------
------------------


o-----------------
-----------------
-----------------
------------------


------------------
-----------------
-----------------
------------------


--8p0-7p0-5p0-7p0-
-8p0-7p0-5p0-7p0-
-8p0-7p0-5p0-7p0-
-8p0-7p0-5p0-7p0--


o-----------------
-----------------
-----------------
------------------


------------------
-----------------
-----------------
------------------



   E E E E E E E E   E E E E E E E E   E E E E E E E E   E E E E E E E E

------------------
-----------------
-----------------
------------------


o-----------------
-----------------
-----------------
------------------


------------------
-----------------
-----------------
------------------


--3-3-3-3-3-3-3-3-
-3-3-3-3-3-3-3-3-
-5-5-5-5-5-5-5-5-
-5-5-5-5-5-5-5-5--


o-3-3-3-3-3-3-3-3-
-3-3-3-3-3-3-3-5-
-5-5-5-5-5-5-5-5-
-5-5-5-5-5-5-5-5--


--3-3-3-3-3-3-3-3-
-3-3-3-3-3-3-3-3-
-5-5-5-5-5-5-5-5-
-5-5-5-5-5-5-5-5--



  Q   E E E E Q     E E E E H          Q     E E E E Q     E E E E H

----------------
------------------
-------------------
------------------


----10p6-6------
-10p6-6-----------
-------10p6-6------
-10p6-6----------o


-----------7----
--------7---------
--------------7----
--------7---------


----------------
------------------
-------------------
------------------


----------------
------------------
-------------------
-----------------o


----------------
------------------
-------------------
------------------



 Q   H       Q     H       E E E E   +E  E  H       Q     H       E E Q

----------------
------------------
-------------------
------------------


----------------
------------------
-------------------
-----------------o


----------------
------------------
-------------------
------------------


-0-----------0--
----------0-0---0-
-(0)------------0--
----------0-0-----


-0-----------0--
----------0-0---0-
-(0)------------0--
----------0-0----o


-0-----------0--
----------0-0---0-
-(0)------------0--
----------0-0-----



  Q   E E E E Q     E E E E H          Q     E E E E Q     E E E E H

----------------
------------------
-------------------
-----------------

----10p6-6------
-10p6-6-----------
-------10p6-6------
-10p6-6----------

-----------7----
--------7---------
--------------7----
--------7--------

----------------
------------------
-------------------
-----------------

----------------
------------------
-------------------
-----------------

----------------
------------------
-------------------
-----------------



                           PM
                                    PM

 Q   H       Q     H       E E E E   +E  E  H       Q     H       E E Q

----------------
------------------
-------------------
-----------------

----------------
------------------
-------------------
-----------------

----------------
------------------
-------------------
-----------------

-0-----------0--
----------0-0---0-
-(0)------------0--
----------0-0----

-0-----------0--
----------0-0---0-
-(0)------------0--
----------0-0----

-0-----------0--
----------0-0---0-
-(0)------------0--
----------0-0----



  E E E E E E E E   E E E E E E E E

-----------------
-----------------

-----------------
-----------------

-----------------
-----------------

-3-3-3-3-3-3-3-3-
-5-5-5-5-5-5-5-5-

-3-3-3-3-3-3-3-3-
-5-5-5-5-5-5-5-5-

-3-3-3-3-3-3-3-3-
-5-5-5-5-5-5-5-5-



    E E  E  E  E  E  E  E    E  E  E  E  S S  E  E  E

------------------------
---------------------------


o-----------------------
---------------------------


------------------------
---------------------------


--0-0--7p=0--8p=0--0--5p
==0--7p=0--0--5h7p=5-------


o-----------------------
----------------------8p=5-


------------------------
---------------------------



   Q    E  E  E  E  E  E    E  E  E  E  E    E  E  E

------------------------
---------------------------


o-----------------------
---------------------------


------10-10-10-10-10-10-
-10-10-10-10-10---10-10-10-


------------------------
---------------------------


o------8--8--8--8--8--8-
--8--8--8--8--8----8--8--8-


------------------------
---------------------------



   E E  E  E  E  E  E  E    E  E  E  E  E    E  E  E

------------------------
---------------------------


o-----------------------
---------------------------


------------------------
---------------------------


--0-0--0--0--0--0--0--0-
--0--0--0--0--0----0--0--0-


o-0-0--0--0--0--0--0--0-
--0--0--0--0--0----0--0--0-


--0-0--0--0--0--0--0--0-
--0--0--0--0--0----0--0--0-



  E E  E  E  E  E  E  E    E  E  E  E  E  E  E  E

-----------------------
--------------------------


-----------------------
-------------------------o


-----------------------
--------------------------


-0-0--7p=0--8p=0--0--5p
==0--7p=0--0--7p=0--7p=0--


-----------------------
-------------------------o


-----------------------
--------------------------



 Q    E  E  E  E  E  E    E  E  E  E  E  E  E  E

-----------------------
--------------------------


-----------------------
-------------------------o


-----10-10-10-10-10-10-
-10-10-10-10-10-10-10-10--


-----------------------
--------------------------


------8--8--8--8--8--8-
--8--8--8--8--8--8--8--8-o


-----------------------
--------------------------



 E E  E  E  E  E  E  E    E  E  E  E  E  E  E  E

-----------------------
--------------------------


-----------------------
-------------------------o


-----------------------
--------------------------


-8-8--8--8--8--8--8--8-
--8--8--8--8--8--8--8--8--


-8-8--8--8--8--8--8--8-
--8--8--8--8--8--8--8--8-o


-8-8--8--8--8--8--8--8-
--8--8--8--8--8--8--8--8--



  Q    E  E  E  E  E  E    E  E  E  E  E  E  E  E

-----------------------
-------------------------

-----------------------
-------------------------

-----10-10-10-10-10-10-
-10-10-10-10-10-10-10-10-

-----------------------
-------------------------

------8--8--8--8--8--8-
--8--8--8--8--8--8--8--8-

-----------------------
-------------------------



 E E  E  E  E  E  E  E    E  E  E  E  E  E  E  E

-----------------------
-------------------------

-----------------------
-------------------------

-----------------------
-------------------------

-3-3--3--3--3--3--3--3-
--3--3--3--3--3--3--3--3-

-3-3--3--3--3--3--3--3-
--3--3--3--3--3--3--3--3-

-3-3--3--3--3--3--3--3-
--3--3--3--3--3--3--3--3-



  Q    E  E  E  E  E  E    E  E  E  E  E  E  E  E

-----------------------
-------------------------

-----------------------
-------------------------

-----12-12-12-12-12-12-
-12-12-12-12-12-12-12-12-

-----------------------
-------------------------

-----10-10-10-10-10-10-
-10-10-10-10-10-10-10-10-

-----------------------
-------------------------



 E E  E  E  E  E  E  E    E  E  E  E  E  E  E  E

-----------------------
-------------------------

-----------------------
-------------------------

-----------------------
-------------------------

-5-5--5--5--5--5--5--5-
--5--5--5--5--5--5--5--5-

-5-5--5--5--5--5--5--5-
--5--5--5--5--5--5--5--5-

-5-5--5--5--5--5--5--5-
--5--5--5--5--5--5--5--5-



    Q=200                                    1.,2.,3.
    Gtrs I, II
    PM--------------------------------------------------------

    E E E E +H       +E  E E E S S E S S E   E E E E +H       +W      4x

-----------------
-----------------------
----------------
---------


o----------------
-----------------------
----------------
--------o


-----------------
-----------------------
----------------
---------


--0-0-0-0-(0)----
-(0)-0-0-0-0-0-0-0-0-0-
-0-0-0-0-(0)----
-(0)-----


o-0-0-0-0-(0)----
-(0)-0-0-0-0-0-0-0-0-0-
-0-0-0-0-(0)----
-(0)----o


--0-0-0-0-(0)----
-(0)-0-0-0-0-0-0-0-0-0-
-0-0-0-0-(0)----
-(0)-----



  4.
  Gtr I
   Q      +Q      +Q     +Q       +Q     +Q     +Q     +Q

-------------------------------
---------------------------

-------------------------------
---------------------------

-------------------------------
---------------------------

-[5]b6r==(5)b6r==(5)b6r=(5)b6r=
=(5)b6r=(5)b6r=(5)b6r=(5)--

-------------------------------
---------------------------

-------------------------------
---------------------------



 Gtr II

  PM-----------------------------

  E    E  E    E +H              +W

-------------------------------
---------------------------

-------------------------------
---------------------------

-------------------------------
---------------------------

--0----0--0----0-(0)-----------
-(0)-----------------------

--0----0--0----0-(0)-----------
-(0)-----------------------

--0----0--0----0-(0)-----------
-(0)-----------------------



    H        E  E E E    E  E E E  E   E  E   E

--------------------
-------------------------


o-------------------
-------------------------


--------------------
-----------10p==0-12p==0-


-----------7p=0-5p0-
--8p=0-5p0---------------


o-------------------
-------------------------


--------------------
-------------------------



   PM-------------------------------------------

   E E E E +H          +E  E E E  S S E  S S E

--------------------
-------------------------


o-------------------
-------------------------


--------------------
-------------------------


--0-0-0-0-(0)-------
-(0)-0-0-0--0-0-0--0-0-0-


o-0-0-0-0-(0)-------
-(0)-0-0-0--0-0-0--0-0-0-


--0-0-0-0-(0)-------
-(0)-0-0-0--0-0-0--0-0-0-



  H        E  E E E    E  E E E  E E  E E   4x

-------------------
-----------------------


-------------------
----------------------o


-------------------
-----------10p0-10p0---


----------7p=0-5p0-
--8p=0-5p0-------------


-------------------
----------------------o


-------------------
-----------------------



---------------------

 E E E E +H          +W                    4x

-------------------
-----------------------


-------------------
----------------------o


-------------------
-----------------------


-0-0-0-0-(0)-------
-(0)-------------------


-0-0-0-0-(0)-------
-(0)------------------o


-0-0-0-0-(0)-------
-(0)-------------------



  W          W

----------
------

----------
------

----------
------

----------
------

----------
------

----------
------



  Q=220
   E  E  E  E  E  E  E  E    E  E  E  E  E  E  E  E

-------------------------
-------------------------

-------------------------
-------------------------

-10-10-10-10-10-10-10-10-
-10-10-10-10-10-10-10-10-

--8--8--8--8--8--8--8--8-
--8--8--8--8--8--8--8--8-

--8--8--8--8--8--8--8--8-
--8--8--8--8--8--8--8--8-

--8--8--8--8--8--8--8--8-
--8--8--8--8--8--8--8--8-



    E E  E  E  E  E  E  E    E  E  E  E  S S  E  E  E

------------------------
---------------------------


o-----------------------
---------------------------


------------------------
---------------------------


--0-0--7p=0--8p=0--0--5p
==0--7p=0--0--5h7p=5-------


o-----------------------
----------------------8p=5-


------------------------
---------------------------



   Q    E  E  E  E  E  E    E  E  E  E  E    E  E  E

------------------------
---------------------------


o-----------------------
---------------------------


------10-10-10-10-10-10-
-10-10-10-10-10---10-10-10-


------------------------
---------------------------


o------8--8--8--8--8--8-
--8--8--8--8--8----8--8--8-


------------------------
---------------------------



   E E  E  E  E  E  E  E    E  E  E  E  E    E  E  E

------------------------
---------------------------


o-----------------------
---------------------------


------------------------
---------------------------


--0-0--0--0--0--0--0--0-
--0--0--0--0--0----0--0--0-


o-0-0--0--0--0--0--0--0-
--0--0--0--0--0----0--0--0-


--0-0--0--0--0--0--0--0-
--0--0--0--0--0----0--0--0-



  E E  E  E  E  E  E  E    E  E  E  E  E  E  E  E  5x

-----------------------
--------------------------


-----------------------
-------------------------o


-----------------------
--------------------------


-0-0--7p=0--8p=0--0--5p
==0--7p=0--0--7p=0--7p=0--


-----------------------
-------------------------o


-----------------------
--------------------------



 Q    E  E  E  E  E  E    E  E  E  E  E  E  E  E  5x

-----------------------
--------------------------


-----------------------
-------------------------o


-----10-10-10-10-10-10-
-10-10-10-10-10-10-10-10--


-----------------------
--------------------------


------8--8--8--8--8--8-
--8--8--8--8--8--8--8--8-o


-----------------------
--------------------------



 E E  E  E  E  E  E  E    E  E  E  E  E  E  E  E  5x

-----------------------
--------------------------


-----------------------
-------------------------o


-----------------------
--------------------------


-8-8--8--8--8--8--8--8-
--8--8--8--8--8--8--8--8--


-8-8--8--8--8--8--8--8-
--8--8--8--8--8--8--8--8-o


-8-8--8--8--8--8--8--8-
--8--8--8--8--8--8--8--8--



    E E  E  E  E  E  E  E    E  E  E  E  S S  E  E  E

------------------------
---------------------------


o-----------------------
---------------------------


------------------------
---------------------------


--0-0--7p=0--8p=0--0--5p
==0--7p=0--0--5h7p=5-------


o-----------------------
----------------------8p=5-


------------------------
---------------------------



   Q    E  E  E  E  E  E    E  E  E  E  E    E  E  E

------------------------
---------------------------


o-----------------------
---------------------------


------10-10-10-10-10-10-
-10-10-10-10-10---10-10-10-


------------------------
---------------------------


o------8--8--8--8--8--8-
--8--8--8--8--8----8--8--8-


------------------------
---------------------------



   E E  E  E  E  E  E  E    E  E  E  E  E    E  E  E

------------------------
---------------------------


o-----------------------
---------------------------


------------------------
---------------------------


--0-0--0--0--0--0--0--0-
--0--0--0--0--0----0--0--0-


o-0-0--0--0--0--0--0--0-
--0--0--0--0--0----0--0--0-


--0-0--0--0--0--0--0--0-
--0--0--0--0--0----0--0--0-



  E E  E  E  E  E  E  E    E  E  E  E  E  E  E  E

-----------------------
--------------------------


-----------------------
-------------------------o


-----------------------
--------------------------


-0-0--7p=0--8p=0--0--5p
==0--7p=0--0--7p=0--7p=0--


-----------------------
-------------------------o


-----------------------
--------------------------



 Q    E  E  E  E  E  E    E  E  E  E  E  E  E  E

-----------------------
--------------------------


-----------------------
-------------------------o


-----12-12-12-12-12-12-
-12-12-12-12-12-12-12-12--


-----------------------
--------------------------


-----10-10-10-10-10-10-
-10-10-10-10-10-10-10-10-o


-----------------------
--------------------------



 E E  E  E  E  E  E  E    E  E  E  E  E  E  E  E

-----------------------
--------------------------


-----------------------
-------------------------o


-----------------------
--------------------------


-8-8--8--8--8--8--8--8-
--8--8--8--8--8--8--8--8--


-8-8--8--8--8--8--8--8-
--8--8--8--8--8--8--8--8-o


-8-8--8--8--8--8--8--8-
--8--8--8--8--8--8--8--8--



  Gtrs I, II
  Q  H.        W

------------
------*

------------
------*

------------
------*

-3----------
------*

-3----------
------*

-3----------
------*

_________________________________________________________________________________





_________________________________________________________________________________

---------------------------------------------------------------------------------
				*************
				* 5.RISE UP *
				*************
---------------------------------------------------------------------------------

    Gtr I
     S  S  S  S  S  S  S  S  S  S  S  S  3x

---------------------------------------


o-18p13-13p10----------10h13p10h11p10-o


--------------12p10h12-----------------


---------------------------------------


o-------------------------------------o


---------------------------------------



   Gtr II

    W                                   3x

---------------------------------------


o-------------------------------------o


---------------------------------------


---------------------------------------


o-------------------------------------o


---------------------------------------



   S  S  S  S  S  S  S  S  S  S  S  S

-------------------------------------

-18p13-13p10----------10h13p10h11p10-

-------------12p10h12----------------

-------------------------------------

-------------------------------------

-------------------------------------



  PM------------------------------

  S  S  S  S  S  S  S  S  S  S  S  S

-------------------------------------

-------------------------------------

-------------------------------------

--0--0--0--0--0--0--0--0--0--0--0--0-

--0--0--0--0--0--0--0--0--0--0--0--0-

--0--0--0--0--0--0--0--0--0--0--0--0-



    W                                   S  S  S  S  S  S  S  S  S  S  S  S

----------------------------------
--------------------------------------


o---------------------------------
--------------------------------------


----------------------------------
-/14-14-14-14-14-14-14-14-14-14-14-14-


----------------------------------
--------------------------------------


o---------------------------------
-/12-12-12-12-12-12-12-12-12-12-12-12-


----------------------------------
--------------------------------------



   E +S  S +S  S  S  S  S  S  S  S     S  S  S  S  S  S  S  S  S  S  S  S

----------------------------------
--------------------------------------


o---------------------------------
--------------------------------------


----------------10-10-10-10-10-10-
--10-10-10-10-10-10-10-10-10-10-10-10-


--0-(0)-0-(0)-0-------------------
--------------------------------------


o-0-(0)-0-(0)-0--8--8--8--8--8--8-
---8--8--8--8--8--8--8--8--8--8--8--8-


--0-(0)-0-(0)-0-------------------
--------------------------------------



  S S  S  S  S  S S  S S S S S   S S  S  S  S  S S  S S S S S

------------------------------
------------------------------

------------------------------
------------------------------

------------------------------
------------------------------

------5--7--5----5------------
------5--7--5----5------------

-5-8-----------8----8-5-8-5-8-
-5-8-----------8----8-5-8-5-8-

------------------------------
------------------------------



 E   +S  S +S  S Q.             E   +S  S +S  S Q.

------------------------------
------------------------------

------------------------------
------------------------------

------------------------------
------------------------------

-5---(5)-5-(5)-5-5------------
-5---(5)-5-(5)-5-5------------

-5---(5)-5-(5)-5-5------------
-5---(5)-5-(5)-5-5------------

-5---(5)-5-(5)-5-5------------
-5---(5)-5-(5)-5-5------------



  E  E     E     S   S  S  S  S S   S S  S  S  S  S S  S S S S S

---------------------------------
------------------------------

---------------------------------
------------------------------

---------------12--12-12-12-12s7-
-7-7--7--7--7--7-7--7-7-7-7-7-

---------------------------------
------------------------------

---------------10--10-10-10-10s5-
-5-5--5--5--5--5-5--5-5-5-5-5-

---------------------------------
------------------------------



 E +S  S +S  S  Q.                 E   +S  S +S  S Q.

---------------------------------
------------------------------

---------------------------------
------------------------------

---------------------------------
------------------------------

-8-(8)-8-(8)-8--8----------------
-8---(8)-8-(8)-8-8------------

-8-(8)-8-(8)-8--8----------------
-8---(8)-8-(8)-8-8------------

-8-(8)-8-(8)-8--8----------------
-8---(8)-8-(8)-8-8------------



  S S  S   S  S  S S  S S S S S   S S  S   S  S  S S  S S S S S

-------------------------------
--------------------------------


-------------------------------
-------------------------------o


-------------------------------
--------------------------------


---7--8--10--8--7-8--7---7---7-
---7--8--10--8--7-8--7---7---7--


-8---------------------8---8---
-8---------------------8---8---o


-------------------------------
--------------------------------



 E   +S   S +S  S Q.             E   +S   S +S  S Q.

-------------------------------
--------------------------------


-------------------------------
-------------------------------o


-------------------------------
--------------------------------


-5---(5)--5-(5)-5-5------------
-5---(5)--5-(5)-5-5-------------


-5---(5)--5-(5)-5-5------------
-5---(5)--5-(5)-5-5------------o


-5---(5)--5-(5)-5-5------------
-5---(5)--5-(5)-5-5-------------



    PM-------------------------------------------------
    S S S S S S S S S S S S   S S S S S S S S S S S S

--------------------------
-------------------------


o-3-3-3-3-3-3-3-3-3-3-3-3-
-3-3-3-3-3-3-3-6-6-6-6-6-


--------------------------
-------------------------


--------------------------
-------------------------


o-------------------------
-------------------------


--------------------------
-------------------------



   PM-------------------------------------------------

   S S S S S S S S S S S S   S S S S S S S S S S S S

--------------------------
-------------------------


o-------------------------
-------------------------


--------------------------
-------------------------


--------------------------
-------------------------


o-0-0-0-0-0-0-0-0-0-0-0-0-
-0-0-0-0-0-0-0-0-0-0-0-0-


--0-0-0-0-0-0-0-0-0-0-0-0-
-0-0-0-0-0-0-0-0-0-0-0-0-



 -------------------------------------------------

  S S S S S S S S S S S S   S S S S S S S S S S S S

-------------------------
----------------------------

-6-6-6-6-6-6-6-6-6-6-6-6-
-6-6-6-6-6-6-6-6-6-6-6-6----

-------------------------
----------------------------

-------------------------
----------------------------

-------------------------
----------------------------

-------------------------
----------------------------



-------------------------------------------------

 S S S S S S S S S S S S   S S S S S S S S S S S S

-------------------------
----------------------------

-------------------------
----------------------------

-------------------------
----------------------------

-------------------------
----------------------------

-3-3-3-3-3-3-3-3-3-3-3-3-
-3-3-3-3-3-3-3-3-3-3-3-3----

-3-3-3-3-3-3-3-3-3-3-3-3-
-3-3-3-3-3-3-3-3-3-3-3-3----



  PM-------------------------------------------------
  S S S S S S S S S S S S   S S S S S S S S S S S S

-------------------------
-------------------------

-3-3-3-3-3-3-3-3-3-3-3-3-
-3-3-3-3-3-3-3-8-8-8-8-8-

-------------------------
-------------------------

-------------------------
-------------------------

-------------------------
-------------------------

-------------------------
-------------------------



 PM-------------------------------------------------

 S S S S S S S S S S S S   S S S S S S S S S S S S

-------------------------
-------------------------

-------------------------
-------------------------

-------------------------
-------------------------

-------------------------
-------------------------

-0-0-0-0-0-0-0-0-0-0-0-0-
-0-0-0-0-0-0-0-0-0-0-0-0-

-0-0-0-0-0-0-0-0-0-0-0-0-
-0-0-0-0-0-0-0-0-0-0-0-0-



                            1.
 -----------------------
      PM
    PM
    PM   PM   PM
  S S S S S S S S S S S S    S S S  S S S  S S  S S  S S

-------------------------
----------------------------------


-6-6-6-6-6-6-6-6-6-6-6-6-
---------------------------------o


-------------------------
-10-----10-----10---10---10-------


-------------------------
----------------------------------


-------------------------
--8-8-8--8-8-8--8-8--8-8--8-8----o


-------------------------
----------------------------------



------------------------------------------------------

 S S S S S S S S S S S S    S S S  S S S  S S  S S  S S

-------------------------
----------------------------------


-------------------------
---------------------------------o


-------------------------
----------------------------------


-------------------------
----------------------------------


-3-3-3-3-3-3-3-3-3-3-3-3-
--3-3-3--3-3-3--3-3--3-3--3-3----o


-3-3-3-3-3-3-3-3-3-3-3-3-
--3-3-3--3-3-3--3-3--3-3--3-3-----



  2.
   S  S  S  S  S  S  S  S  S  S  S  S

-------------------------------------
-

-------------------------------------
-

-10-10-10-10-10-10-10-10-10-10-10-10-
-

-------------------------------------
-

--8--8--8--8--8--8--8--8--8--8--8--8-
-

-------------------------------------
-



  S  S  S  S  S  S  S  S  S  S  S  S

-------------------------------------
-

-------------------------------------
-

-------------------------------------
-

-------------------------------------
-

--3--3--3--3--3--3--3--3--3--3--3--3-
-

--3--3--3--3--3--3--3--3--3--3--3--3-
-



    W                                   S  S  S  S  S  S  S  S  S  S  S  S

----------------------------------
--------------------------------------


o---------------------------------
--------------------------------------


----------------------------------
-/14-14-14-14-14-14-14-14-14-14-14-14-


----------------------------------
--------------------------------------


o---------------------------------
-/12-12-12-12-12-12-12-12-12-12-12-12-


----------------------------------
--------------------------------------



   E +S  S +S  S  S  S  S  S  S  S     S  S  S  S  S  S  S  S  S  S  S  S

----------------------------------
--------------------------------------


o---------------------------------
--------------------------------------


----------------10-10-10-10-10-10-
--10-10-10-10-10-10-10-10-10-10-10-10-


--0-(0)-0-(0)-0-------------------
--------------------------------------


o-0-(0)-0-(0)-0--8--8--8--8--8--8-
---8--8--8--8--8--8--8--8--8--8--8--8-


--0-(0)-0-(0)-0-------------------
--------------------------------------



  S S  S  S  S  S S  S S S S S   S S  S  S  S  S S  S S S S S

------------------------------
------------------------------

------------------------------
------------------------------

------------------------------
------------------------------

------5--7--5----5------------
------5--7--5----5------------

-5-8-----------8----8-5-8-5-8-
-5-8-----------8----8-5-8-5-8-

------------------------------
------------------------------



 E   +S  S +S  S Q.             E   +S  S +S  S Q.

------------------------------
------------------------------

------------------------------
------------------------------

------------------------------
------------------------------

-5---(5)-5-(5)-5-5------------
-5---(5)-5-(5)-5-5------------

-5---(5)-5-(5)-5-5------------
-5---(5)-5-(5)-5-5------------

-5---(5)-5-(5)-5-5------------
-5---(5)-5-(5)-5-5------------



  E  E     E     S   S  S  S  S S   S S  S  S  S  S S  S S S S S

---------------------------------
------------------------------

---------------------------------
------------------------------

---------------12--12-12-12-12s7-
-7-7--7--7--7--7-7--7-7-7-7-7-

---------------------------------
------------------------------

---------------10--10-10-10-10s5-
-5-5--5--5--5--5-5--5-5-5-5-5-

---------------------------------
------------------------------



 E +S  S +S  S  Q.                 E   +S  S +S  S Q.

---------------------------------
------------------------------

---------------------------------
------------------------------

---------------------------------
------------------------------

-8-(8)-8-(8)-8--8----------------
-8---(8)-8-(8)-8-8------------

-8-(8)-8-(8)-8--8----------------
-8---(8)-8-(8)-8-8------------

-8-(8)-8-(8)-8--8----------------
-8---(8)-8-(8)-8-8------------



                                  1.
  S S  S   S  S  S S  S S S S S   S S  S   S  S  S S  S S S S S

-------------------------------
--------------------------------


-------------------------------
-------------------------------o


-------------------------------
--------------------------------


---7--8--10--8--7-8--7---7---7-
---7--8--10--8--7-8--7---7---7--


-8---------------------8---8---
-8---------------------8---8---o


-------------------------------
--------------------------------



 E   +S   S +S  S Q.             E   +S   S +S  S Q.

-------------------------------
--------------------------------


-------------------------------
-------------------------------o


-------------------------------
--------------------------------


-5---(5)--5-(5)-5-5------------
-5---(5)--5-(5)-5-5-------------


-5---(5)--5-(5)-5-5------------
-5---(5)--5-(5)-5-5------------o


-5---(5)--5-(5)-5-5------------
-5---(5)--5-(5)-5-5-------------



  2.
  E E E E E E

-------------
-

-------------
-

-------------
-

-5-5-5-5-5-5-
-

-5-5-5-5-5-5-
-

-5-5-5-5-5-5-
-



 E E E E E E

-------------
-

-------------
-

-------------
-

-5-5-5-5-5-5-
-

-5-5-5-5-5-5-
-

-5-5-5-5-5-5-
-



    Q=190
   4/4
    PM        PM----
              PM-----------
    Q   Q   E E +E  E   +E  E  Q   S S E S S E

--------------------
------------------------


o----17\------------
-------17\--------------


--------------------
------------------------


--0---------0-(0)-0-
-(0)--------0-0-0-0-0-0-


o-0---------0-(0)-0-
-(0)--------0-0-0-0-0-0-


--0---------0-(0)-0-
-(0)--------0-0-0-0-0-0-



   PM        PM--------
          PM-----------

   Q   Q   E E +E  E   +E  E  Q   S S E S S E

--------------------
------------------------


o-------------------
------------------------


-----18\------------
-------18\--------------


--0---------0-(0)-0-
-(0)--------0-0-0-0-0-0-


o-0---------0-(0)-0-
-(0)--------0-0-0-0-0-0-


--0---------0-(0)-0-
-(0)--------0-0-0-0-0-0-



 -
         PM----

  Q   Q   E E +E  E   E E S S E E E E E

-------------------
---------------------


----17\------------
--------------------o


-------------------
---------------------


-0---------0-(0)-0-
---------------------


-0---------0-(0)-0-
-----7-5---5--------o


-0---------0-(0)-0-
---5-----8---8-5-5---



-
         PM----

 Q   Q   E E +E  E   E E S S E E E E E

-------------------
---------------------


-------------------
--------------------o


----18\------------
---------------------


-0---------0-(0)-0-
-----7-5---5---------


-0---------0-(0)-0-
---5-----8---8-5-5--o


-0---------0-(0)-0-
---------------------



    PM------------------------------
    Q  Q  +E. S +E. S   +W

--------------------
------------


o-------------------
------------


--------------------
------------


--0--0--(0)-0-(0)-0-
-(0)--------


o-0--0--(0)-0-(0)-0-
-(0)--------


--0--0--(0)-0-(0)-0-
-(0)--------



 -----------------------------------------

  E E E E S S E S S E   E E E E S S E S S E

---------------------
----------------------

---------------------
----------------------

---------------------
----------------------

---0-0-0-0-0-0-0-0-0-
---0-0-0-0-0-0-0-0-0--

---0-0-0-0-0-0-0-0-0-
---0-0-0-0-0-0-0-0-0--

---0-0-0-0-0-0-0-0-0-
---0-0-0-0-0-0-0-0-0--



                                                        1.
  PM----------------------------------------------------------------------

  Q  Q  +E. S +Q     +W           E E E E S S E S S E   E E E E S S E S S E

------------------
------------
---------------------
----------------------


------------------
------------
---------------------
---------------------o


------------------
------------
---------------------
----------------------


-0--0--(0)-0-(0)--
-(0)--------
---0-0-0-0-0-0-0-0-0-
---0-0-0-0-0-0-0-0-0--


-0--0--(0)-0-(0)--
-(0)--------
---0-0-0-0-0-0-0-0-0-
---0-0-0-0-0-0-0-0-0-o


-0--0--(0)-0-(0)--
-(0)--------
---0-0-0-0-0-0-0-0-0-
---0-0-0-0-0-0-0-0-0--



  2.
  PM----------

  E E E E E E Q

----------------

----------------

----------------

---0-0-0---0----

---0-0-0---0----

---0-0-0---0----



    Q.=70
   6/8
     S  S  S  S  S  S  S  S  S  S  S  S

--------------------------------------


o-11p10-------------11p10-------------


-----------10----10----------10----10-


--------12----12----------12----12----


o-------------------------------------


--------------------------------------



    H.

--------------------------------------


o-------------------------------------


--------------------------------------


---0----------------------------------


o--0----------------------------------


---0----------------------------------



   S   S  S  S  S  S  S  S  S  S  S  S

---------------------------------------


-11p=10-------------11p10-------------o


-----------10----10----------10----10--


--------12----12----------12----12-----


--------------------------------------o


---------------------------------------



 +H.

---------------------------------------


--------------------------------------o


---------------------------------------


-(0)-----------------------------------


-(0)----------------------------------o


-(0)-----------------------------------



     S  S  S   S  S   S  S  S  S  S  S  S

----------------------------------------


o-11p10---------------11p10-------------


------------10-----10----------10----10-


--------12-----12-----------12----12----


o---------------------------------------


----------------------------------------



    E    +S   S +S   S  S  S  E     E

----------------------------------------


o---------------------------------------


----------------------------------------


---0----(0)--0-(0)--0--0----------------


o--0----(0)--0-(0)--0--0----------------


---0----(0)--0-(0)--0--0----------------



  1.
   S  S  S   S  S   S  S  S  S  S  S  S

-----------------------------------------


-11p10---------------11p10--------------o


-----------10-----10----------10----10---


-------12-----12-----------12----12------


----------------------------------------o


-----------------------------------------



  E    +S   S +S   S  S  S  E     E

-----------------------------------------


----------------------------------------o


-----------------------------------------


--0----(0)--0-(0)--0--0------------------


--0----(0)--0-(0)--0--0-----------------o


--0----(0)--0-(0)--0--0------------------



  2.
  PM--------------------

  S S S S S S S S S S S S

-------------------------

-------------------------

-------------------------

-0-0-0-0-0-0-0-0-0-0-0-0-

-0-0-0-0-0-0-0-0-0-0-0-0-

-0-0-0-0-0-0-0-0-0-0-0-0-



    Gtr I
     S  S  S  S  S  S  S  S  S  S  S  S    S  S  S  S  S  S  S  S  S  S  S  S

--------------------------------------
-------------------------------------


o-11p10-------------11p10-------------
-11p10-------------11p10-------------


-----------10----10----------10----10-
----------10----10----------10----10-


--------12----12----------12----12----
-------12----12----------12----12----


o-------------------------------------
-------------------------------------


--------------------------------------
-------------------------------------



   Gtr II

    E     S  S  S  S  E     S  S  S  S    E     S  S  S  S  E     S  S  S  S

--------------------------------------
-------------------------------------


o-------------------------------------
-------------------------------------


--------------------------------------
-------------------------------------


---0-----0--0--0--0--0-----0--0--0--0-
--0-----0--0--0--0--0-----0--0--0--0-


o--0-----0--0--0--0--0-----0--0--0--0-
--0-----0--0--0--0--0-----0--0--0--0-


---0-----0--0--0--0--0-----0--0--0--0-
--0-----0--0--0--0--0-----0--0--0--0-



   Gtr III

    E     E     E     S  S  S  S  S  S    S  S  S  S  S  S  S  S  S  S  S  S

--------------------------------------
-------------------------------------


o-------------------------------------
-------------------------------------


--------------------14-14-14-14-14-14-
-12-12-12-12-12-12-10-10-10-10-10-10-


--------------------------------------
-------------------------------------


o-------------------12-12-12-12-12-12-
-10-10-10-10-10-10--8--8--8--8--8--8-


--------------------------------------
-------------------------------------



   S  S  S  S  S  S  S  S  S  S  S  S    S  S  S  S  S  S  S  S  S  S  S  S

-------------------------------------
----------------------------------------

-11p10-------------11p10-------------
-11p10-------------11p10----------------

----------10----10----------10----10-
----------10----10----------10----10----

-------12----12----------12----12----
-------12----12----------12----12-------

-------------------------------------
----------------------------------------

-------------------------------------
----------------------------------------



  E     S  S  S  S  E     S  S  S  S    E     S  S  S  S  E     S  S  S  S

-------------------------------------
----------------------------------------

-------------------------------------
----------------------------------------

-------------------------------------
----------------------------------------

--5-----5--5--5--5--5-----5--5--5--5-
--5-----5--5--5--5--5-----5--5--5--5----

--5-----5--5--5--5--5-----5--5--5--5-
--5-----5--5--5--5--5-----5--5--5--5----

--5-----5--5--5--5--5-----5--5--5--5-
--5-----5--5--5--5--5-----5--5--5--5----



  E     E     E     S  S  S  S  S  S    S  S  S  S  S  S  S  S  S  S  S  S

-------------------------------------
----------------------------------------

-------------------------------------
----------------------------------------

-------------------10-10-10-10-10-10-
-10-10-10-10-10-10-14-14-14-14-14-14----

-------------------------------------
----------------------------------------

--------------------8--8--8--8--8--8-
--8--8--8--8--8--8-12-12-12-12-12-12----

-------------------------------------
----------------------------------------



   S  S  S  S  S  S  S  S  S  S  S  S    S  S  S  S  S  S  S  S  S  S  S  S

-------------------------------------
-------------------------------------

-11p10-------------11p10-------------
-11p10-------------11p10-------------

----------10----10----------10----10-
----------10----10----------10----10-

-------12----12----------12----12----
-------12----12----------12----12----

-------------------------------------
-------------------------------------

-------------------------------------
-------------------------------------



  E     S  S  S  S  E     S  S  S  S    E     S  S  S  S  E     S  S  S  S

-------------------------------------
-------------------------------------

-------------------------------------
-------------------------------------

-------------------------------------
-------------------------------------

--3-----3--3--3--3--3-----3--3--3--3-
--3-----3--3--3--3--3-----3--3--3--3-

--3-----3--3--3--3--3-----3--3--3--3-
--3-----3--3--3--3--3-----3--3--3--3-

--3-----3--3--3--3--3-----3--3--3--3-
--3-----3--3--3--3--3-----3--3--3--3-



  S  S  S  S  S  S  S  S  S  S  S  S    S  S  S  S  S  S  S  S  S  S  S  S

-------------------------------------
-------------------------------------

-------------------------------------
-------------------------------------

--7--7--7--7--7--7--7--7--7--7--7--7-
--7--7--7--7--7--7--7--7--7--7--7--7-

-------------------------------------
-------------------------------------

--5--5--5--5--5--5--5--5--5--5--5--5-
--5--5--5--5--5--5--5--5--5--5--5--5-

-------------------------------------
-------------------------------------



   S  S  S  S  S  S  S  S  S  S  S  S    S  S  S  S  S  S  S  S  S  S  S  S

-------------------------------------
-----------------------------------------


-11p10-------------11p10-------------
-11p10-------------11p10----------------o


----------10----10----------10----10-
----------10----10----------10----10-----


-------12----12----------12----12----
-------12----12----------12----12--------


-------------------------------------
----------------------------------------o


-------------------------------------
-----------------------------------------



  E     S  S  S  S  E     S  S  S  S    E     S  S  S  S  E     S  S  S  S

-------------------------------------
-----------------------------------------


-------------------------------------
----------------------------------------o


-------------------------------------
-----------------------------------------


--5-----5--5--5--5--5-----5--5--5--5-
--5-----5--5--5--5--5-----5--5--5--5-----


--5-----5--5--5--5--5-----5--5--5--5-
--5-----5--5--5--5--5-----5--5--5--5----o


--5-----5--5--5--5--5-----5--5--5--5-
--5-----5--5--5--5--5-----5--5--5--5-----



  E     E     E     E     S  S  S  S    E     E     E     E     S  S  S  S

-------------------------------------
-----------------------------------------


-------------------------------------
----------------------------------------o


-------------------------10-10-10-10-
--------------------------7--7--7--7-----


-------------------------------------
-----------------------------------------


--------------------------8--8--8--8-
--------------------------5--5--5--5----o


-------------------------------------
-----------------------------------------



   S  S  S  S  S  S  S  S  S  S  S  S    S  S  S  S  S  S  S  S  S  S  S  S

-------------------------------------
-------------------------------------

-18p13-13p10----------10h13p10h11p10-
-18p13-13p10----------10h13p10h11p10-

-------------12p10h12----------------
-------------12p10h12----------------

-------------------------------------
-------------------------------------

-------------------------------------
-------------------------------------

-------------------------------------
-------------------------------------



  E     S  S  S  S  E     S  S  S  S    E     S  S  S  S  E     S  S  S  S

-------------------------------------
-------------------------------------

-------------------------------------
-------------------------------------

-------------------------------------
-------------------------------------

--0-----0--0--0--0--0-----0--0--0--0-
--0-----0--0--0--0--0-----0--0--0--0-

--0-----0--0--0--0--0-----0--0--0--0-
--0-----0--0--0--0--0-----0--0--0--0-

--0-----0--0--0--0--0-----0--0--0--0-
--0-----0--0--0--0--0-----0--0--0--0-



   S  S  S  S  S  S  S  S  S  S  S  S    S  S  S  S  S  S  S  S  S  S  S  S

-------------------------------------
----------------------------------------

-18p13-13p10----------10h13p10h11p10-
-18p13-13p10----------10h13p10h11p10----

-------------12p10h12----------------
-------------12p10h12-------------------

-------------------------------------
----------------------------------------

-------------------------------------
----------------------------------------

-------------------------------------
----------------------------------------



  E     S  S  S  S  E     S  S  S  S    E     S  S  S  S  E     S  S  S  S

-------------------------------------
----------------------------------------

-------------------------------------
----------------------------------------

-------------------------------------
----------------------------------------

--8-----8--8--8--8--8-----8--8--8--8-
--8-----8--8--8--8--8-----8--8--8--8----

--8-----8--8--8--8--8-----8--8--8--8-
--8-----8--8--8--8--8-----8--8--8--8----

--8-----8--8--8--8--8-----8--8--8--8-
--8-----8--8--8--8--8-----8--8--8--8----



   S  S  S  S  S  S  S  S  S  S  S  S    S  S  S  S  S  S  S  S  S  S  S  S

-------------------------------------
-------------------------------------

-18p13-13p10----------10h13p10h11p10-
-18p13-13p10----------10h13p10h11p10-

-------------12p10h12----------------
-------------12p10h12----------------

-------------------------------------
-------------------------------------

-------------------------------------
-------------------------------------

-------------------------------------
-------------------------------------



  E     S  S  S  S  E     S  S  S  S    E     S  S  S  S  E     S  S  S  S

-------------------------------------
-------------------------------------

-------------------------------------
-------------------------------------

-------------------------------------
-------------------------------------

--5-----5--5--5--5--5-----5--5--5--5-
--5-----5--5--5--5--5-----5--5--5--5-

--5-----5--5--5--5--5-----5--5--5--5-
--5-----5--5--5--5--5-----5--5--5--5-

--5-----5--5--5--5--5-----5--5--5--5-
--5-----5--5--5--5--5-----5--5--5--5-



   S  S  S  S  S  S  S  S  S  S  S  S    S  S  S  S  S  S  S  S  S  S  S  S

-------------------------------------
----------------------------------------

-18p13-13p10h20p10h18p13-13p10h20p10-
-18p13-13p10----------10h13p10h11p10----

-------------------------------------
-------------12p10h12-------------------

-------------------------------------
----------------------------------------

-------------------------------------
----------------------------------------

-------------------------------------
----------------------------------------



  E     S  S  S  S  E     S  S  S  S    E     E     E     E     E     E

-------------------------------------
----------------------------------------

-------------------------------------
----------------------------------------

-------------------------------------
----------------------------------------

--8-----8--8--8--8--8-----8--8--8--8-
--8-----8-----8-----8-----8-----8-------

--8-----8--8--8--8--8-----8--8--8--8-
--8-----8-----8-----8-----8-----8-------

--8-----8--8--8--8--8-----8--8--8--8-
--8-----8-----8-----8-----8-----8-------



     S  S  S   S  S   S  S  S  S  S  S  S     S  S  S  S  S  S  S  S  S  S  S  S

----------------------------------------
--------------------------------------


o-18p13-13p=10-----------10h13p10h11p10-
--18p13-13p10----------10h13p10h11p10-


---------------12p=10h12----------------
--------------12p10h12----------------


----------------------------------------
--------------------------------------


o---------------------------------------
--------------------------------------


----------------------------------------
--------------------------------------



    W                                        S  S  S  S  S  S  S  S  S  S  S  S

----------------------------------------
--------------------------------------


o---------------------------------------
--------------------------------------


----------------------------------------
-/14-14-14-14-14-14-14-14-14-14-14-14-


----------------------------------------
--------------------------------------


o---------------------------------------
-/12-12-12-12-12-12-12-12-12-12-12-12-


----------------------------------------
--------------------------------------



    E    +S   S +S   S  S  S  S  S  S  S     S  S  S  S  S  S  S  S  S  S  S  S

----------------------------------------
--------------------------------------


o---------------------------------------
--------------------------------------


----------------------10-10-10-10-10-10-
--10-10-10-10-10-10-10-10-10-10-10-10-


---0----(0)--0-(0)--0-------------------
--------------------------------------


o--0----(0)--0-(0)--0--8--8--8--8--8--8-
---8--8--8--8--8--8--8--8--8--8--8--8-


---0----(0)--0-(0)--0-------------------
--------------------------------------



   S  S  S   S  S   S  S   S  S  S  S  S    S  S  S   S  S   S  S   S  S  S  S  S

----------------------------------------
-------------------------------------------

-18p13-13p=10------------10h13p10h11p10-
-18p13-13p=10------------10h13p10h11p10----

--------------12p=10h12-----------------
--------------12p=10h12--------------------

----------------------------------------
-------------------------------------------

----------------------------------------
-------------------------------------------

----------------------------------------
-------------------------------------------



  S  S  S   S  S   S  S   S  S  S  S  S    S  S  S   S  S   S  S   S  S  S  S  S

----------------------------------------
-------------------------------------------

----------------------------------------
-------------------------------------------

----------------------------------------
-------------------------------------------

--------5---7--5------5-----------------
--------5---7--5------5--------------------

--5--8-------------8------8--5--8--5--8-
--5--8-------------8------8--5--8--5--8----

----------------------------------------
-------------------------------------------



  E    +S   S +S   S  Q.                   E    +S   S +S   S  Q.

----------------------------------------
-------------------------------------------

----------------------------------------
-------------------------------------------

----------------------------------------
-------------------------------------------

--5----(5)--5-(5)--5--5-----------------
--5----(5)--5-(5)--5--5--------------------

--5----(5)--5-(5)--5--5-----------------
--5----(5)--5-(5)--5--5--------------------

--5----(5)--5-(5)--5--5-----------------
--5----(5)--5-(5)--5--5--------------------



   S  S  S   S  S   S  S   S  S  S  S  S    S  S  S   S  S   S  S   S  S  S  S  S

----------------------------------------
----------------------------------------

-18p13-13p=10------------10h13p10h11p10-
-18p13-13p=10------------10h13p10h11p10-

--------------12p=10h12-----------------
--------------12p=10h12-----------------

----------------------------------------
----------------------------------------

----------------------------------------
----------------------------------------

----------------------------------------
----------------------------------------



  E     E      E      S   S  S  S  S  S    S  S  S   S  S   S  S   S  S  S  S  S

----------------------------------------
----------------------------------------

----------------------------------------
----------------------------------------

---------------------12--12-12-12-12s=7-
--7--7--7---7--7---7--7---7--7--7--7--7-

----------------------------------------
----------------------------------------

---------------------10--10-10-10-10s=5-
--5--5--5---5--5---5--5---5--5--5--5--5-

----------------------------------------
----------------------------------------



  E    +S   S +S   S  Q.                   E    +S   S +S   S  Q.

----------------------------------------
----------------------------------------

----------------------------------------
----------------------------------------

----------------------------------------
----------------------------------------

--8----(8)--8-(8)--8--8-----------------
--8----(8)--8-(8)--8--8-----------------

--8----(8)--8-(8)--8--8-----------------
--8----(8)--8-(8)--8--8-----------------

--8----(8)--8-(8)--8--8-----------------
--8----(8)--8-(8)--8--8-----------------



  1.
   S  S  S   S  S   S  S   S  S  S  S  S    S  S  S   S  S   S  S   S  S  S  S  S

----------------------------------------
--------------------------------------------


-18p13-13p=10------------10h13p10h11p10-
-18p13-13p=10------------10h13p10h11p10----o


--------------12p=10h12-----------------
--------------12p=10h12---------------------


----------------------------------------
--------------------------------------------


----------------------------------------
-------------------------------------------o


----------------------------------------
--------------------------------------------



  S  S  S   S  S   S  S   S  S  S  S  S    S  S  S   S  S   S  S   S  S  S  S  S

----------------------------------------
--------------------------------------------


----------------------------------------
-------------------------------------------o


----------------------------------------
--------------------------------------------


-----7--8--10--8---7--8---7-----7-----7-
-----7--8--10--8---7--8---7-----7-----7-----


--8--------------------------8-----8----
--8--------------------------8-----8-------o


----------------------------------------
--------------------------------------------



  E    +S   S +S   S  Q.                   E    +S   S +S   S  Q.

----------------------------------------
--------------------------------------------


----------------------------------------
-------------------------------------------o


----------------------------------------
--------------------------------------------


--3----(3)--3-(3)--3--3-----------------
--5----(5)--5-(5)--5--5---------------------


--3----(3)--3-(3)--3--3-----------------
--5----(5)--5-(5)--5--5--------------------o


--3----(3)--3-(3)--3--3-----------------
--5----(5)--5-(5)--5--5---------------------



  2.
   S  S  S   S  S   S  S  S  S  S  S  S    S  S  S  S  S  S  S  S  S  S  S  S

---------------------------------------
-------------------------------------

-18p13-13p=10h20p=10h18p13-13p10h20p10-
-18p13-13p10----------10h13p10h11p10-

---------------------------------------
-------------12p10h12----------------

---------------------------------------
-------------------------------------

---------------------------------------
-------------------------------------

---------------------------------------
-------------------------------------



  S  S  S   S  S   S  S  S  S  S  S  S    E     E     E     E     E     E

---------------------------------------
-------------------------------------

---------------------------------------
-------------------------------------

---------------------------------------
-14----14----14----14----14----14----

-----7--8--10--8---7--8--7-----7-----7-
-------------------------------------

--8-------------------------8-----8----
-12----12----12----12----12----12----

---------------------------------------
-------------------------------------



  E    +S   S +S   S  Q.                  E     E     E     E     E     E

---------------------------------------
-------------------------------------

---------------------------------------
-------------------------------------

---------------------------------------
-------------------------------------

--3----(3)--3-(3)--3--3----------------
--5-----5-----5-----5-----5-----5----

--3----(3)--3-(3)--3--3----------------
--5-----5-----5-----5-----5-----5----

--3----(3)--3-(3)--3--3----------------
--5-----5-----5-----5-----5-----5----



   H.         +H.         +H.         +H.         +H.

----------
-----------
-----------
-----------
---------

-13-------
-(13)------
-(13)------
-(13)------
-(13)----

----------
-----------
-----------
-----------
---------

----------
-----------
-----------
-----------
---------

----------
-----------
-----------
-----------
---------

----------
-----------
-----------
-----------
---------



  H.         +H.         +H.         +H.         +H.

----------
-----------
-----------
-----------
---------

----------
-----------
-----------
-----------
---------

-10-------
-(10)------
-(10)------
-(10)------
-(10)----

----------
-----------
-----------
-----------
---------

--8-------
--(8)------
--(8)------
--(8)------
--(8)----

----------
-----------
-----------
-----------
---------



  H.         +H.         +H.         +H.         +H.

----------
-----------
-----------
-----------
---------

----------
-----------
-----------
-----------
---------

----------
-----------
-----------
-----------
---------

--0-------
--(0)------
--(0)------
--(0)------
--(0)----

--0-------
--(0)------
--(0)------
--(0)------
--(0)----

--0-------
--(0)------
--(0)------
--(0)------
--(0)----

_________________________________________________________________________________





_________________________________________________________________________________

----------------------------------------------------------------------------
			     **********************
			     * 6.TIMES LIKE THESE *
			     **********************
----------------------------------------------------------------------------




Tuning: Drop D

Chorus x8 -

  Guitar 1
e
------------------------------------------------

B
------------------------------------------------

G
----10p9p7---10p9p7---10p9p7---5p0-5p0-5h7------

D
------------------------------------------------

A
------------------------------------------------

D
------------------------------------------------

   Guitar 2 x2
e
--------------------------------------------------------------------------

B
--------------------------------------------------------------------------

G
--------------------------------------------------------------------------

D
--------0------------0-0-0------------0-------------7p5-------------------

A
-00-0-0-0-----000000-0-0-0-----00-0-0-0-----000000------8p7---------------

D
-00-0-0-0-----000000-0-0-0-----00-0-0-0-----000000----------8~------------

-  .. . .       ......           .. . .       ......
e
-------------------------------------------------------------------------

B
-------------------------------------------------------------------------

G
-------------------------------------------------------------------------

D
--------3------------3-3-3------------8~------------8-8-8----------------

A
-33-3-3-3-----333333-3-3-3-----88-8-8-8~-----888888-8-8-8----------------

D
-33-3-3-3-----333333-3-3-3-----88-8-8-8~-----888888-8-8-8----------------

-  .. . .       ......           .. . .        ......

Verse x4 -

  Guitar 1      ( ) = first two times only, don't play last two.
e
--------------------------------------------------------------------------

B
--------------------------------------------------------------------------

G
---------------5-/7-7-7-7-7/9-9-9-9-9----------------7/9-9-9-9-9/10101010-

D
-------0-------x--x-x-x-x-x-x-x-x-x-x--------0-------x-x-x-x-x-x-x-x-x-x--

A
000000-0-(0000)3-/5-5-5-5-5/7-7-7-7-7-000000-0-(0000)5/7-7-7-7-7/8-8-8-8--

D
000000-0-(0000)-----------------------000000-0-(0000)---------------------

- ......    ....                        ......    ....
  Guitar 2
e
---------------------------------------------------------------------------

B
---------------------------------------------------------------------------

G
--------------9-/1010101010/1212121212---------------14-\12121212\10101010-

D
-------0------x--x-x-x-x-x--x-x-x-x-x---------0------x---x-x-x-x--x-x-x-x--

A
000000-0(0000)7-/8-8-8-8-8-/1010101010-000000-0(0000)12-\10101010\8-8-8-8--

D
000000-0(0000)-------------------------000000-0(0000)----------------------

- ......   ....                          ......   ....
  Guitar 1
e
-------------------------------------------------------------------------

B
-------------------------------------------------------------------------

G
--------10-----------10------------10-----------101010-------------------

D
--------8------------8-------------8------------8-8-8--------------------

A
-888888-8-8888888888-8--8888888888-8-8888888888-8-8-8--------------------

D
-888888-8-8888888888-8--8888888888-8-8888888888-8-8-8--------------------

-  ......   ..........    ..........   ..........
  Guitar 2
e
-------------------------------------------------------------------------

B
-------------------------------------------------------------------------

G
--------10-----------10------------10------------------------------------

D
--------8------------8-------------8------8p7-7p5--3p0-3p0-3h5-----------

A
-888888-8-8888888888-8-88888888888-8-8888--------------------------------

D
-888888-8-8888888888-8-88888888888-8-8888--------------------------------

-  ......   ..........   ...........   ....

  Chorus,

Bridge

  Guitar 1 -
e
--------------------------------------------------------------------------

B
--------------------------------------------------------------------------

G
---5h7~----10-9-5~----10~--9~---5h7~------7*b--/10~------12~---b-r--------

D
--------------------------------------------------------------------------

A
--------------------------------------------------------------------------

D
--------------------------------------------------------------------------

   - x 3
e
--------------------------------------------------------------------------

B
--------------------------------------------------------------------------

G
--------------------------------------------------------------------------

D
--------0----------0----------0-------------------------------------------

A
-000000-0---000000-0---000000-0-0000--------------------------------------

D
-000000-0---000000-0---000000-0-0000--------------------------------------

-  ......     ......     ......   ....
e
------------------------------------------------------------

B
------------------------------------------------------------

G
--10p0-9p0-12p0-9h10p9-9h10p9-7h9-7p0-9p0-10p0-9p0-7p0-5h7--

D
------------------------------------------------------------

A
------------------------------------------------------------

D
------------------------------------------------------------

  Guitar 2  x 3
e
--------------------------------------------------------------------------

B
--------------------------------------------------------------------------

G
--------------------------------------------------------------------------

D
--------0----------0----------0-------8p0-7p0-5p0-7p0-5p0-3h5-------------

A
-000000-0---000000-0---000000-0-0000--------------------------------------

D
-000000-0---000000-0---000000-0-0000--------------------------------------

-  ......     ......     ......   ....
e
------------------------------

B
------------------------------

G
------------------------------

D
--------------------8-8-8-----

A
-888888888888888888-8-8-8-----

D
-888888888888888888-8-8-8-----

-  ..................
e
--------------------------------------------------------------------------

B
--------------------------------------------------------------------------

G
--------------------------------------------------------------------------

D
--0---0---0---------------------------------------------------------------

A
--0---0---0---------------------------------------------------------------

D
--0---0---0---------------------------------------------------------------


  This next part I'm currently working on, I will tab guitar 1 later.

   Guitar 2
e
-------------------------------------------------------------------------

B
-------------------------------------------------------------------------

G
-------------------------------------------------------------------------

D
--------------------------------------------------------------------00---

A
-000---00-----000---00-----000---00-----000---00------7b-b-b-r--~---00---

D
-000---00-----000---00-----000---00-----000---00--------------------00---

-  ...   ..     ...   ..     ...   ..     ...   ..

    *DRUM SOLO*

 Guitars 1,2 x 8
e
----------
    e
--------------

B
----------
    B
--------------

G
----------
    G
-----7*-------

D
----------
    D
--------------

A
--00--00--
    A
--------------

D
--00--00--
    D
--------------

-   ..  ..


 /  slide up

 \  slide down

 h  hammer-on

 p  pull-off

 ~  vibrato

 +  harmonic

 x  Mute note
_________________________________________________________________________________





_________________________________________________________________________________


-------------------------------------------------------------------------------
			     	**********
			     	* 7:PRAY *
			     	**********
-------------------------------------------------------------------------------



Tuning: Drop D

NOTES: -This is the ALBUM VERSION from the CD of iTunes.
       -During the BRIDGE, there is a 3rd guitar part. I tabbed all three.

GUITAR I

INTRO/VERSE I - Acoustic - [x8]

e
---------------------------------------------

B
--5--55-55---5--55-55---5--55-55---5--55-55--

G
--2--22-22---2--22-22---2--22-22---2--22-22--

D
--4--44-44---4--44-44---4--44-44---4--44-44--

A
---------------------------------------------

D
---------------------------------------------



e
---------------------------------------------

B
--5--55-55---5--55-55---5--55-55---5--55-55--

G
--2--22-22---2--22-22---2--22-22---2--22-22--

D
--0--00-00---0--00-00---0--00-00---0--00-00--

A
---------------------------------------------

D
---------------------------------------------


CHORUS - Distorted

(LAY...)
e
---12121212-121212--12121212----12121212-121212--12121212--------

B
-----------------------------------------------------------------

G
-----------------------------------------------------------------

D
-----------------------------------------------------------------

A
-----------------------------------------------------------------

D
-----------------------------------------------------------------


(Down...)
e
-------------------------------------------------------

B
--15-14-12-14-12-10-9h10p9-7-9-5--7--9--10--12--10--9--

G
-------------------------------------------------------

D
-------------------------------------------------------

A
-------------------------------------------------------

D
-------------------------------------------------------


(PRAY...)
e
---12121212-121212--12121212----12121212-121212--12121212--------

B
-----------------------------------------------------------------

G
-----------------------------------------------------------------

D
-----------------------------------------------------------------

A
-----------------------------------------------------------------

D
-----------------------------------------------------------------


(Now...)
e
--14--16---
 Tremolo Here
B
-----------

G
-----------

D
-----------

A
-----------

D
-----------


(LAY...)
e
--17-16-17-16h17p16-14-16-17-16-17--17-16-17-16h17p16-14-16-17-16-17-------

B
---------------------------------------------------------------------------

G
---------------------------------------------------------------------------

D
---------------------------------------------------------------------------

A
---------------------------------------------------------------------------

D
---------------------------------------------------------------------------


(Down...)
e
----------------------------------------------------------

B
--101010101010--121212121212--141414141414--151515151515--

G
----------------------------------------------------------

D
----------------------------------------------------------

A
----------------------------------------------------------

D
----------------------------------------------------------


(PRAY...)
e
--------------12----------------------9-10-9--

B
--9-10-9h10p9----10-9-----9-10-9h10p9---------

G
----------------------------------------------

D
----------------------------------------------

A
----------------------------------------------

D
----------------------------------------------


(Now...)
e
---------------

B
--10~--9~------

G
-----------9~--

D
---------------

A
---------------

D
---------------


VERSE II

e
---------------------------------------------------------------------------

B
--10-9----10-9----10-9----12-10-9--10-9---10-9------9-10-12-10-9-----------

G
-------9-------9-------9----------------9------9-11------------------------

D
---------------------------------------------------------------------------

A
---------------------------------------------------------------------------

D
---------------------------------------------------------------------------


e
---------------------------------------------------------------------------

B
--10-9-7~-9-10-9-7~-9-10-9---10-9---10-9----10-9---------------------------

G
---------------------------9------9------9-------9-------------------------

D
---------------------------------------------------------------------------

A
---------------------------------------------------------------------------

D
---------------------------------------------------------------------------


e
----------------------

B
----------------------

G
----------------------

D
----------------------

A
--12-11---------------
  Then it's basically the same thing
D
--------14------------
 but here until the pause which is on the 11.

e
----------------------

B
----------------------

G
----------------------

D
----------------------

A
--11----11-12-11------
 And this until the chorus.
D
-----14----------14---


Repeat Chorus

BRIDGE

e
---------------------------------------------------------------

B
--10p5t10p5t10p5t12p5t12p5t12p5t14p5t14p5t14p5t12p5t12p5t12p5--

G
---------------------------------------------------------------

D
---------------------------------------------------------------

A
---------------------------------------------------------------

D
---------------------------------------------------------------
 [x3]

e
---------------------------------------

B
--10p5t10p5t10p5t12p5t12p5t12p5t10~~~--

G
---------------------------------------

D
---------------------------------------

A
---------------------------------------

D
---------------------------------------
 [x1]

e
---------------------------------------

B
--9h10p9------9h10p9-------------------

G
--------9h11p9------9/11-9h11p9--------

D
-------------------------------11------
 
A
---------------------------------------

D
---------------------------------------
 [x8]

CHORUS

e
---------------------------------------

B
---------------------------------------

G
---------------------------------------

D
--4-------0----------------------------

A
--4-[x32]-0-[x32]----------------------

D
--4-------0----------------------------


e
---------------------------------------

B
---------------------------------------

G
---------------------------------------

D
--11-11p9-7--6-6h7p6-------------------

A
---------------------7h9---------------

D
---------------------------------------
 [x4]

e
-------------------------------------------

B
-------------------------------------------

G
-------------------------------------------

D
----------------------------------------9--

A
--11h12p11-7h9p7-11------11h12p11-7h9p7----

D
-------------------------------------------
 [x1]

e
---------------------------------------

B
---------------------------------------

G
---------------------------------------

D
--11-11p9-7--6-6h7p6-------------------

A
---------------------7h9---------------

D
---------------------------------------
 [x2]

e
-------------------------------------------

B
-------------------------------------------

G
-------------------------------------------

D
----------------------------------------9--

A
--11h12p11-7h9p7-11------11h12p11-7h9p7----

D
-------------------------------------------
 [x1]

e
---------------------------------------

B
---------------------------------------

G
---------------------------------------

D
--11-11p9-7--6-6h7p6-------------------

A
---------------------7h9---------------

D
---------------------------------------
 [x2]

e
----------------------

B
----------------------

G
----------------------

D
----0~~---------------

A
----0~~---------------

D
----0~~---------------



GUITAR II

INTRO/VERSE I - Acoustic - [x8]

e
---------------------------------------------

B
--5--55-55---5--55-55---5--55-55---5--55-55--

G
--2--22-22---2--22-22---2--22-22---2--22-22--

D
--4--44-44---4--44-44---4--44-44---4--44-44--

A
---------------------------------------------

D
---------------------------------------------



e
---------------------------------------------

B
--5--55-55---5--55-55---5--55-55---5--55-55--

G
--2--22-22---2--22-22---2--22-22---2--22-22--

D
--0--00-00---0--00-00---0--00-00---0--00-00--

A
---------------------------------------------

D
---------------------------------------------


CHORUS - Distorted - [x2]

e
---------------------------------------------------------------------------

B
---------------------------------------------------------------------------

G
-----------------------------------------11111111--1111--11131313--1313----

D
--4444-444-----4444-444-----0000-000------x-x-x-x---x-x---x-x-x-x---x-x----

A
--4444-444-----4444-444-----0000-000------9-9-9-9---9-9---9111111--1111----

D
--4444-444-----4444-444-----0000-000---------------------------------------


e
---------------------------------------------------------------------------

B
---------------------------------------------------------------------------

G
-----------------------------------------14141414--1414--14131313--1313----

D
--4444-444-----4444-444-----0000-000------x-x-x-x---x-x---x-x-x-x---x-x----

A
--4444-444-----4444-444-----0000-000-----12121212--1212--12111111--1111----

D
--4444-444-----4444-444-----0000-000---------------------------------------
 

VERSE II - STACCATO

e
--------------------------------------------------------------------

B
--------------------------------------------------------------------

G
--------------------------------------------------------------------

D
--4-4-4-4-4-4-4-4-4-4-4-4-0-0-0-0-0-0-0-0-0-0-0-0-------------------

A
--4-4-4-4-4-4-4-4-4-4-4-4-0-0-0-0-0-0-0-0-0-0-0-0-------------------

D
--4-4-4-4-4-4-4-4-4-4-4-4-0-0-0-0-0-0-0-0-0-0-0-0----[x3]-----------


e
------------------------------------------------------------------------

B
------------------------------------------------------------------------

G
------------------------------------------------------------------------

D
--4-4-4-4-4-4-4-4-4-4-4-4-0-0-0-0-0-0-0-0-0-0---------------------------

A
--4-4-4-4-4-4-4-4-4-4-4-4-0-0-0-0-0-0-0-0-0-0---------------------------

D
--4-4-4-4-4-4-4-4-4-4-4-4-0-0-0-0-0-0-0-0-0-0--------[x1]---------------


e
--------------------------------------------------------------------

B
--------------------------------------------------------------------

G
--------------------------------------------------------------------

D
--4-4-4-4-4-4-4-4-4-4-4-4-0-0-0-0-0-0-0-0-0-0-0-0-------------------

A
--4-4-4-4-4-4-4-4-4-4-4-4-0-0-0-0-0-0-0-0-0-0-0-0-------------------

D
--4-4-4-4-4-4-4-4-4-4-4-4-0-0-0-0-0-0-0-0-0-0-0-0----[x2]-----------


CHORUS - Distorted - [x2]

e
---------------------------------------------------------------------------

B
---------------------------------------------------------------------------

G
-----------------------------------------11111111--1111--11131313--1313----

D
--4444-444-----4444-444-----0000-000------x-x-x-x---x-x---x-x-x-x---x-x----

A
--4444-444-----4444-444-----0000-000------9-9-9-9---9-9---9111111--1111----

D
--4444-444-----4444-444-----0000-000---------------------------------------


e
---------------------------------------------------------------------------

B
---------------------------------------------------------------------------

G
-----------------------------------------14141414--1414--14131313--1313----

D
--4444-444-----4444-444-----0000-000------x-x-x-x---x-x---x-x-x-x---x-x----

A
--4444-444-----4444-444-----0000-000-----12121212--1212--12111111--1111----

D
--4444-444-----4444-444-----0000-000---------------------------------------


BRIDGE - [HARMONY]

e
------------------------------------------------------

B
--7p5t7p5t7p5t9p5t9p5t9p5t10p5t10p5t10p5t9p5t9p5t9p5--

G
------------------------------------------------------

D
------------------------------------------------------

A
------------------------------------------------------

D
------------------------------------------------------
 [x3]

e
--------------------------------

B
--7p5t7p5t7p5t9p5t9p5t9p5t7~~~--

G
--------------------------------

D
--------------------------------

A
--------------------------------

D
--------------------------------
 [x1]

-*- 4 Measures of Guitar I -*-

e
----------------------------------------------

B
--12h14p12--------12h14p14--------------------

G
----------13h14p13--------13/14-13h14p13------

D
----------------------------------------14----
 
A
----------------------------------------------

D
----------------------------------------------
[x4]

CHORUS

e
---------------------------------------

B
---------------------------------------

G
---------------------------------------

D
--4-------0----------------------------

A
--4-[x32]-0-[x32]----------------------

D
--4-------0----------------------------
 [x2]

e
--------------------------------------------------------------------------

B
--------------------------------------------------------------------------

G
--------------------------------------------------------------------------

D
--4444-4444-4--------4444-4444-4--------0000-0000-0--------0000-0000-0----

A
--4444-4444-4--------4444-4444-4--------0000-0000-0--------0000-0000-0----

D
--4444-4444-4--------4444-4444-4--------0000-0000-0--------0000-0000-0----
[x2]

e
---------------------------------------

B
---------------------------------------

G
---------------------------------------

D
--0-------0----------------------------

A
--0-[x32]-0~~~~~-----------------------

D
--0-------0----------------------------



GUITAR III

BRIDGE

[Underneath Tapping] - STACCATO
e
--------------------------------------------------------------------

B
--------------------------------------------------------------------

G
--------------------------------------------------------------------

D
--4-4-4-4-4-4-4-4-4-4-4-4-0-0-0-0-0-0-0-0-0-0-0-0-------------------

A
--4-4-4-4-4-4-4-4-4-4-4-4-0-0-0-0-0-0-0-0-0-0-0-0-------------------

D
--4-4-4-4-4-4-4-4-4-4-4-4-0-0-0-0-0-0-0-0-0-0-0-0-------------------
 [x1]

e
--------------------------------------------------------------------

B
--------------------------------------------------------------------

G
--------------------------------------------------------------------

D
--4-4-4-4-4-4-4-4-4-4-4-4-0-0-0-0-0-0-0~~~~~~~~~~-------------------

A
--4-4-4-4-4-4-4-4-4-4-4-4-0-0-0-0-0-0-0~~~~~~~~~~-------------------

D
--4-4-4-4-4-4-4-4-4-4-4-4-0-0-0-0-0-0-0~~~~~~~~~~-------------------
 [x1]

[Underneath part after tapping]
e
------------------------------------------------------------------

B
------------------------------------------------------------------

G
------------------------------------------------------------------

D
--44--44-44---44--44-44---4---00--00-00---00--00-00---799---------

A
--44--44-44---44--44-44---4---00--00-00---00--00-00---799---------

D
--44--44-44---44--44-44---4---00--00-00---00--00-00---799---------
 [x2]
    ..  .. ..   ..  .. ..       ..  .. ..   ..  .. ..

Pretty sure it's like 99% correct.
Some parts are hard to hear.

Support the band, stop using Limewire.


 /  slide up

 \  slide down

 h  hammer-on

 p  pull-off

 ~  vibrato

 +  harmonic

 x  Mute note

_________________________________________________________________________________





_________________________________________________________________________________


-------------------------------------------------------------------------------
			***********************
			* 9.WAIT FOR TOMORROW *
			***********************
-------------------------------------------------------------------------------


the other tab for this was pretty good he just forgot some of rythms part so im going to 
to fill them in i hope u like it!! :D


INTRO: (played with reverb)

Both guitars
e
--------------------------------------------------------

B
--------------------------------------------------------

G
-------13---------11---------9----------11----------13--

D
---11----------9----------7----------9----------11------

A
9-----------7----------5----------7----------9----------

D
--------------------------------------------------------


(then still with reverb)
e
-----------------------------------

B
-----------------------------------

G
--13--13/14--13--11-13/16--14--13--

D
-----------------------------------

A
-----------------------------------

D
-----------------------------------


(then both guitars play this once clean then twice with distortion)
e
---------------------------------------------------------------

B
---------------------------------------------------------------

G
------9----------11----------13--13/14--13--11-13/16--14--13---
  (x3)
D
---7----------9------------------------------------------------

A
5----------7---------------------------------------------------

D
---------------------------------------------------------------



VERSE:

Guitar 1: (x5)
e
-----------------------------------

B
-----------------------------------

G
---------13----14----13---11---13--

D
----11-----------------------------

A
-99----9----99----99----9----9-----

D
-----------------------------------


e
------------------------------------------

B
------------------------------------------

G
--------------------------11----11--------

D
----7------------7------9--------------9--

A
-55----5----5/7-----77--------7-----7-----

D
------------------------------------------


Guitar 2: (x5)
e
---------------------------------------------

B
---------------------------------------------

G
---------------------------------------------

D
-444444-4-444444-4-222222-2-444444-4-44444-0-

A
-444444-4-444444-4-222222-2-444444-4-44444-0-

D
-444444-4-444444-4-222222-2-444444-4-44444-0-



(then play...)
both guitars:  (x2)
e
-----------------------------------------------------------

B
-----------------------------------------------------------

G
-----------------------------------------------------------

D
4444--------------------------0000-------------------------

A
4444------------------11-12---0000------------------11-12--

D
4444--121212101010999---------0000--121212101010999--------


e
-----------------------------
---------------

B
-----------------------------
---------------

G
-----------------------------
---------------

D
4444-------------------------
-000000-222222-

A
4444------------------11-12--
-000000-222222-

D
4444--121212101010999--------
-000000-222222-



VERSE: (x4)

Guitar 1: (x4)
e
-----------------------------------

B
-----------------------------------

G
---------13----14----13---11---13--

D
----11-----------------------------

A
-99----9----99----99----9----9-----

D
-----------------------------------


e
------------------------------------------

B
------------------------------------------

G
--------------------------11----11--------

D
----7------------7------9--------------9--

A
-55----5----5/7-----77--------7-----7-----

D
------------------------------------------


Guitar 2: (x4)
e
---------------------------------------------

B
---------------------------------------------

G
---------------------------------------------

D
-444444-4-444444-4-222222-2-444444-4-44444-0-

A
-444444-4-444444-4-222222-2-444444-4-44444-0-

D
-444444-4-444444-4-222222-2-444444-4-44444-0-



(then play...)
both guitars:  (x2)
e
-----------------------------------------------------------

B
-----------------------------------------------------------

G
-----------------------------------------------------------

D
4444--------------------------0000-------------------------

A
4444------------------11-12---0000------------------11-12--

D
4444--121212101010999---------0000--121212101010999--------


e
-----------------------------
---------------

B
-----------------------------
---------------

G
-----------------------------
---------------

D
4444-------------------------
-000000-222222-

A
4444------------------11-12--
-000000-222222-

D
4444--121212101010999--------
-000000-222222-



both guitars:
e
------------------

B
------------------

G
------------------

D
-0000-22-2222222--

A
-0000-22-2222222--

D
-0000-22-2222222--

        ..

Guitar 1:
e
------------------

B
------------------

G
---9-13-14-13-9---
 (do that till they start doing the verse till end)
D
-11------------11-

A
9-----------------

D
------------------


Guitar 2:
e
---------------------------------

B
---------------------------------

G
---------------------------------

D
-444444444-222222222-000000000---
 (play till verse at the end)
A
-444444444-222222222-000000000---

D
-444444444-222222222-000000000---

   ......... ......... .........


VERSE (play till end):

Guitar 1:
e
-----------------------------------

B
-----------------------------------

G
---------13----14----13---11---13--

D
----11-----------------------------

A
-99----9----99----99----9----9-----

D
-----------------------------------


e
------------------------------------------

B
------------------------------------------

G
--------------------------11----11--------

D
----7------------7------9--------------9--

A
-55----5----5/7-----77--------7-----7-----

D
------------------------------------------


Guitar 2:
e
---------------------------------------------

B
---------------------------------------------

G
---------------------------------------------

D
-444444-4-444444-4-222222-2-444444-4-44444-0-

A
-444444-4-444444-4-222222-2-444444-4-44444-0-

D
-444444-4-444444-4-222222-2-444444-4-44444-0-



ok that was it... i hope u enjoyed :D listen to the song for strumming patterns i tryd 
them in there as best as i could but idk it doesnt look good lol! follow my instructions 
u'll be fine! :]
any ?'s or comments or changes tell me ok?


 / slide     

 . palm mute 



_________________________________________________________________________________





_________________________________________________________________________________


-------------------------------------------------------------------------------
			    ***********************
			    * 10.BLACK ROSE DYING *
      			    ***********************
-------------------------------------------------------------------------------





_________________________________________________________________________________





_________________________________________________________________________________



-------------------------------------------------------------------------------
			     ********************
			     * 11.HIS LAST WALK *
			     ********************
-------------------------------------------------------------------------------



Tuning: Drop D

(6X)
e
-----------------------------------------------------------------------------

B
-----------------------------------------------------------------------------

G
-----------------------------------------------------------------------------

D
----------7p0---------7p0-7p0-7p0-----------7p0---------8p0-5p0-5p0----------

A
----0h5h8-------0h5h8-----------------0h5h8-------0h5h8----------------------

D
-0-0-----------0-------------------0-0------------0--------------------------

   . .           .                   . .            .
(4x)
e
-----------------------------------------------------------------------------

B
-----------------------------------------------------------------------------

G
-----------------------------------------------------------------------------

D
-----5h7p5-------5h7p5----7p0-8p0-----7h8p7\5---5h7p5\3--2p0-2p0-------------

A
-----------7p0---------8p0---------------------------------------------------

D
-0-0-----------0-------------------0-0----------0----------------------------

   . .           .                   . .          .

e
------------------------------------------------------------------------------

B
------------------------------------------------------------------------------

G
------------------------------------------------------------------------------

D
--9b--------------------------------------------------------------------------

A
-(harmonic)-------------------------------------------------------------------

D
------------------------------------------------------------------------------


(HEAVY PALM MUTES)
e
-----------------------------------------------------------------------------

B
-----------------------------------------------------------------------------

G
-----------------------------------------------------------------------------

D
-0-0-0----0-0-0----0-0----0-0-0----------------------------------------------

A
-0-0-0----0-0-0----0-0----0-0-0----------------------------------------------

D
-0-0-0----0-0-0----0-0----0-0-0----------------------------------------------

   . . .    . . .    . .    . . .

e
------------------------------------------------------------------------------

B
------------------------------------------------------------------------------

G
----------------------------------(harmonic)----------------------------------

D
-------0h5h7--7----5h7p5-----------9b-----------------------------------------

A
-0h5h8--------------------10-9-7-7--------------------------------------------

D
------------------------------------------------------------------------------



 /  slide up

 \  slide down

 .  palm mutes

 h  hammer-on

 p  pull-off

 ~  vibrato

 +  harmonic

 x  mute note

_________________________________________________________________________________

		And that's all!
		All credit to original tabbers.
_________________________________________________________________________________
Duration Legend
---------------
W - whole; H - half; Q - quarter; E - 8th; S - 16th; T - 32nd; X - 64th; a - acciaccatura
+ - note tied to previous; . - note dotted; .. - note double dotted
Uncapitalized letters represent notes that are staccato (1/2 duration)
Irregular groupings are notated above the duration line
Duration letters will always appear directly above the note/fret number it represents the
duration for.  Duration letters with no fret number below them represent rests.  Multi-
bar rests are notated in the form Wxn, where n is the number of bars to rest for.  Low
melody durations appear below the staff

Tablature Legend
----------------
 h   - hammer-on
 p   - pull-off
 b   - bend
 pb  - pre-bend
 r   - bend release (if no number after the r, then release immediately)
 /\  - slide into or out of (from/to "nowhere")
 s   - legato slide
 S   - shift slide
  - natural harmonic
[n]  - artificial harmonic
n(n) - tapped harmonic
 ~   - vibrato
 tr  - trill
 T   - tap
 TP  - trem. picking
 PM  - palm muting
\n/  - tremolo bar dip; n = amount to dip
 \n  - tremolo bar down
 n/  - tremolo bar up
/n\  - tremolo bar inverted dip
 =   - hold bend; also acts as connecting device for hammers/pulls
 <>  - volume swell (louder/softer)
 x   - on rhythm slash represents muted slash
 o   - on rhythm slash represents single note slash

Misc Legend
-----------
 
  - bar

  - double bar

o - repeat start
o
 - repeat end
*
  - double bar (ending)
 :  - bar (freetime)
 $  - Segno
 &  - Coda
Tempo markers -  = BPM(8/16=s8/s16), where s8 = swing 8ths, s16 = swing 16ths


*************************************************************************************************

*************************************************************************************************
 


/
How To Set Up Higher Praise As Your Home Page
Copyright 1999, Higher Praise HigherPraise,Inc. All rights reserved. Terms of Use

Enjoy A Life Changing Experience

 
 
 
HigherPraise, Higher Praise, HigherPraise, Higher Praise, HigherPraise

Members..Sign Up. LogIn

 
 

Higher Praise Other Sites
 
 

HigherPraise.org/
Praise And Worship
www.higherpraise.org

HigherPraise.net
Christian Resources
www.higherpraise.net

HigherPraiseTube.com
Videos And Audios
www.higherpraisetube.com.


ChristianLyrics.org

Lyrics And Chrords
www.christianlyrics.org

ChristianChordsLyrics

Lyrics And Chrords
www.christianchordslyrics.com

ChristianChordLyrics

Lyrics And Chrords
www.christianchordlyrics.com

WorshipLyrics.org
10.000 Illustrations
www.worshiplyrics.org

WorshipLyrics.net
10.000 Illustrations
www.worshiplyrics.net

PraiseLyrics.com
PowerPoint Lyrics

www.praiselyrics.com

PraiseLyrics.org
PowerPoint Lyrics

www.praiselyrics.org

1GodTube.com
Chistian Videos

www1godtube..com

OneGodTube.com
Chistian Videos

www.onegodtube..com

 

/
Е Copyright 1999 - 2019, Higher Praise™ HigherPraise™,Inc. All rights reserved. Terms of Use