Higher Praise - Guitar Chords, Lyrics  GuitarTabs -  Praise nad Worship Music And Christian Songs

Higher Praise - Guitar Tabs, Guitar Chords, Lyrics
   Lyrics, Chords And Tabs
   Popular Lyrics Chords Tab
   Power Point Lyrics
   Praise & Worship Music
   Christian Music Videos
   15900 Videos & Audios
   Midi Files
   Worship Questions
   Christmas Chords, Lyrics
   Lyrics, Chords Tabs Rated

Sermon Outlines And Audio Sermons
   9344 Sermon Outlines
   N.T. Sermon Outlines
   O.T. Sermon Outlines
   Special Guest Outlines
   10.000 Illustrations
   Sunday School Studies
   Bible College Studies
   Greatest Preachers
   Bible Research Tools
Audio Sermons
   2895 Audio Sermons
   85 Sermon Videos
   291 Special Guests Serm

   Complete Audio Bible
Higher Praise Sunday School Teaching
   Children's NT Studies
   Children's OT Studies

   98 Children's Midis
   Gospel For Kids Movie
   Children's JESUS Film
Higher Praise Christian Video Library ,Videos
   Christian Television
   TBN TV Live
   15,000 Videos - HP Tube
   712 Youth Music Vids
  Christian Video Library
   Praise Videos #1 & #2
   85 Sermon Videos
   Prophecy Film -Videos
   JESUS Film -Video
   Childrens JESUS Film
   Gospel For Kids Movie
   Passion Of The Christ
   Noah, Sodom, Sinai, Ark
   Tsunami Videos Photos
News And Information
   Testimonies
   Submit Lyrics, Tabs, Serm
   10.000 Illustrations
   Bible College Course
   Clipart & Web Graphics
   Greatest Preachers
   Complete Talking Bible
   Christian Chat Rooms
   Links Church Resource
   HP Statement Of Faith
Download Clipart
   Audio Sermons
   Clipart & Web Graphics
   Church Administration
   Bible Study Software
   Screen Savers Software
   Verse A Day Software
   Educational Games
   Trade Center Photos

   Soft. Search Engine
Higher Praise News
   Current News
    Archived News
   Submit News
   Newsletter   Higher Praise Interact Prayer
   Prayer For All Needs
   
Submit Lyrics, Sermons
   
Contact Higher Praise
   
Advertising 
   Privacy Policy
//
He Died For You,  Click For Answer! This Is Who Jesus Is Video

'
 
0-9 A B C D E F G H I J K L M N O P Q R S T U V W X Y Z
.

//
Click For Printable...Version Of This File
 

Black Sheep


by August Burns Red




BLACK SHEEP
As recorded by August Burns Red
(From the 2007 Album MESSENGERS)

Transcribed by Chris Allan

As always, for those without powertab, here you go. This one\'s long, sorry. TP stands 
trill pick, if you can\'t figure it out. That\'s how powertab exports it. Enjoy, 
is probably next.


Words and Music by ABR
Arranged by ABR

 Intro
  Q=180
  N.C.
 4/4
  Gtrs I, II
  TP TPTPTP TPTP  TP TPTPTP TPTP   TP TPTP TP TPTP  TP TPTPTP TPTP

---------------
---------------
-----------------
---------------

---------------
---------------
-----------------
---------------

---------------
---------------
-----------------
---------------

-5--0-4-5--0-4-
-5--0-5-8--0-8-
-12--0-8-12--0-8-
-7--0-5-4--0-4-

---------------
---------------
-----------------
---------------

---------------
---------------
-----------------
---------------



  N.C.
                                                   2/4
  TP TPTPTP TPTP  TP TPTP TP TPTP   TP TPTPTP TPTP  TP TPTP

---------------
----------------
----------------
---------


---------------
----------------
----------------
---------


---------------
----------------
----------------
---------


-5--0-4-5--0-5-
-8--0-8-12--0-8-
-12--0-8-7--0-5-
-4--0-4--


---------------
----------------
----------------
---------


---------------
----------------
----------------
---------



   \"You\'ve fallen captive...\"
    Q=165
    G5
   4/4
    PM-----------
      PM--
   PM-------------


--------------------
------------------------


o-------------------
------------------------


--------------------
------------------------


--------------------
------------------------


o-5-5-5-5--5-5-5----
-5-5-5---5-5-5-5-5-5----


--5-5-5-5--5-5-5----
-5-5-5---5-5-5-5-5-5----



                      1.                          2.
  G5
  PM-----------
   PM----
    PM--------------------
    PM------------

--------------------
-------------------------
----------------------

--------------------
------------------------o
----------------------

--------------------
-------------------------
----------------------

--------------------
-------------------------
----------------------

-5-5-5-5--5-5-5---5-
-5-5----5-5-5-5-5-5-5-5-o
-5-5----5-5-5-5-5-----

-5-5-5-5--5-5-5---5-
-5-5----5-5-5-5-5-5-5-5--
-5-5----5-5-5-5-5-----



  G5
  Gtr I
  PM------------
        PM--
     PM--------------

----------------------
---------------------------

----------------------
---------------------------

----------------------
---------------------------

----------------------
---------------------------

-5-5-5-5---5-5-5------
-5-5-5-----5-5-5-5-5-5-----

-5-5-5-5---5-5-5------
-5-5-5-----5-5-5-5-5-5-----



 Gtr II

 TP      TPTPTP   TPTP  TP    TPTPTP      TP  TP

----------------------
-------------------------

----------------------
-------------------------

----------------------
-------------------------

-5-------0-4-5----0-4-
-5-----0-5-8-------0---8-

----------------------
-------------------------

----------------------
-------------------------



  G5
   PM-------------
    PM----
      PM----------------

------------------------
----------------------------

------------------------
----------------------------

------------------------
----------------------------

------------------------
----------------------------

--5-5-5-5---5--5-5----5-
-5-5------5-5-5-5-5-5-5-5---

--5-5-5-5---5--5-5----5-
-5-5------5-5-5-5-5-5-5-5---



  TP      TPTP TP   TPTP  TP   TPTPTP      TP  TP

------------------------
--------------------------

------------------------
--------------------------

------------------------
--------------------------

-12-------0-8-12----0-8-
-7----0-5-4-------0---4---

------------------------
--------------------------

------------------------
--------------------------



  G5
  PM------------
        PM--
      PM--------------

----------------------
----------------------------

----------------------
----------------------------

----------------------
----------------------------

----------------------
----------------------------

-5-5-5-5---5-5-5------
-5-5-5------5-5-5-5-5-5-----

-5-5-5-5---5-5-5------
-5-5-5------5-5-5-5-5-5-----



 TP      TPTPTP   TPTP  TP    TPTP TP      TP  TP

----------------------
--------------------------

----------------------
--------------------------

----------------------
--------------------------

-5-------0-4-5----0-5-
-8-----0-8-12-------0---8-

----------------------
--------------------------

----------------------
--------------------------



  G5
   PM------------
    PM----
      PM------------

-----------------------
------------------------

-----------------------
------------------------

-----------------------
------------------------

-----------------------
------------------------

--5-5-5-5---5-5-5----5-
-5-5------5-5-5-5-5-----

--5-5-5-5---5-5-5----5-
-5-5------5-5-5-5-5-----



  TP      TPTPTP   TPTP  TP   TPTPTP      TPTP

-----------------------
---------------------


-----------------------
---------------------


-----------------------
---------------------


-12-------0-8-7----0-5-
-4----0-4-5-------5--


-----------------------
---------------------


-----------------------
---------------------



   \"What\'s done is done...\"
    Q=210
    N.C.
    Gtrs I, II
            PM  PM
     PM  PM    PM  PM          PM  PM
     PM  PM    PM  PM

--------------------
-----------------
-------------------
-----------------


o-------------------
-----------------
-------------------
-----------------


--------------------
-----------------
-------------------
-----------------


--5h6p5-----------5-
---4---------8---
-5h6p5-----------5-
---4---------8---


o-------6---5-------
-------5s9-------
-------6---5-------
-------5s9-------


----------0---0-0---
-0---0-----0---0-
---------0---0-0---
-0---0-----0---0-



                                       1.
  N.C.
          PM  PM
     PM  PM    PM  PM          PM  PM
     PM  PM--------------

-------------------
-----------------
-------------------
---------------------

-------------------
-----------------
-------------------
-----------------o---

-------------------
-----------------
-------------------
---------------------

-5h6p5-----------5-
---4---------8---
-5h6p5-------------
---------------------

-------6---5-------
-------5s9-------
-------6---5-----1-
---0-----4-4-4---o---

---------0---0-0---
-0---0-----0---0-
---------0---0-0---
-0---0-0-4-4-4-------



  2.
  N.C.
    PM--
   PM--
     PM------------

-----------------
-----------------

-----------------
---------7-------

-----------------
-7---------------

-7-------8-------
-----------------

-----------------
-----------------

---0-0-0---0-0-0-
---0-0-0---------



   \"Neither one will ever...\"
    N.C.
    PM--
   PM  PM--
       PM  PM--
     PM--


----------------------
---------------------


o---------------------
---------------------


----------------------
---------------7-----


--------8---7---------
-7---5---------------


o---------------------
---------------------


--5-5-5---5---5-5-5-5-
---5---5-5-5-5---5---



 -----
   PM  PM--
       PM  PM-------------
     PM

---------------------
----------------------

---------------------
----------------------

---------------------
---------------7------

-------8---7---------
-7---5----------------

---------------------
----------------------

-5-5-5---5---5-5-5-5-
---5---5-5-5-5---5----



                                           1.
  N.C.
  PM--
   PM  PM--
       PM  PM--
     PM          PM  PM------

---------------------
-------------------
---------------------

---------------------
-------------------
---------------------

---------------------
-------------------
---------------------

-------5---4---------
---------------5---
-4h5p4---------------

---------------------
-6---5-------------
-------6---5-----1---

-0-0-0---0---0-0-0-0-
---0---0-0-0-0---0-
---------0---0-0-----



                      2.
          F#5         N.C.
  PM  PM------------------------------------------------

------------------
---------------
-------------------

-----------------o
---------------
-----7---(7)\\-----

------------------
---------------
-7-----------------

------------------
-------7---8---
-------------------

---0-----4-4-4-4-o
---------------
-------------------

-0---0-0-4-4-4-4--
-0-0-0---------
-------------------



  Q=220
  Bb/G              D5             Bb/G       D5    D/F#          D5
  Gtr I
                     PM--------
               PM--------------------
                 PM

-----------------
--------------
----------------
------------------

-----------------
--------------
----------------
------------------

-----------------
--------------
----------------
------------------

-8-8-8-8-8-8-8-8-
--------------
-8--8-8-8-8-----
---7---7-7-7-7----

-5-5-5-5-5-5-5-5-
--0-------0-0-
-5--5-5-5-5--0--
---5---5-5-5-5-0--

-5-5-5-5-5-5-5-5-
--0-------0-0-
-5--5-5-5-5--0--
---4---4-4-4-4-0--



 Gtr II

-----------------
--------------
----------------
-------------------

-----------------
--------------
----------------
-------------------

-7---------------
-(7)------7-8-
-7------8---12--
-(12)------8-------

-----------------
--------------
----------------
-------------------

-----------------
--------------
----------------
-------------------

-----------------
--------------
----------------
-------------------



  Bb/G              D5             N.C.
                    PM----------------------------------------

-----------------
--------------
-------------
--------------

-----------------
--------------
-------------
--------------

-----------------
--------------
-------------
--------------

-8-8-8-8-8-8-8-8-
--------------
----1--------
-1-----4------

-5-5-5-5-5-5-5-5-
-0--------0-0-
-5-----0--5--
----0---------

-5-5-5-5-5-5-5-5-
-0--------0-0-
-------------
--------------



-----------------
--------------
-5--6-----5--
-6-----6----

-----4---6-------
----4--6------
-------------
------------

-7-----------7---
-7--------7---
-------7-----
----7-------

-----------------
--------------
-------------
------------

-----------------
--------------
-------------
------------

-----------------
--------------
-------------
------------



  Bb/G              D5             Bb/G       D5    D/F#           D5
                     PM--------
               PM---------------------
                  PM

-----------------
--------------
----------------
-------------------

-----------------
--------------
----------------
-------------------

-----------------
--------------
----------------
-------------------

-8-8-8-8-8-8-8-8-
--------------
-8--8-8-8-8-----
---7---7-7--7-7----

-5-5-5-5-5-5-5-5-
--0-------0-0-
-5--5-5-5-5--0--
---5---5-5--5-5-0--

-5-5-5-5-5-5-5-5-
--0-------0-0-
-5--5-5-5-5--0--
---4---4-4--4-4-0--



-----------------
--------------
----------------
--------------------

-----------------
--------------
------------11--
-(11)------10-------

-7---------------
-(7)------7h8p
=7------8-------
--------------------

-----------------
--------------
----------------
--------------------

-----------------
--------------
----------------
--------------------

-----------------
--------------
----------------
--------------------



  Bb/G              D5             N.C.
                     PM-----------------------------------------

-----------------
--------------
--------------
---------------

-----------------
--------------
--------------
---------------

-----------------
--------------
--------------
---------------

-8-8-8-8-8-8-8-8-
--------------
-----1--------
--1-----4------

-5-5-5-5-5-5-5-5-
--0-------0-0-
--5-----0--5--
-----0---------

-5-5-5-5-5-5-5-5-
--0-------0-0-
--------------
---------------



-----------------
--------------
--------------
-------------

-6---------------
-(6)----------
-10-----------
-11----------

-----------------
--------------
--------------
-------------

-----------------
--------------
--------------
-------------

-----------------
--------------
--------------
-------------

-----------------
--------------
--------------
-------------



  Bb/G               D5                  Bb/G         D5    D/F#           D5
                       PM-----------
                  PM---------------------
                  PM

------------------
-------------------
------------------
-------------------

------------------
-------------------
------------------
-------------------

------------------
-------------------
------------------
-------------------

--8-8-8-8-8-8-8-8-
-------------------
--8--8-8--8-8-----
---7---7-7--7-7----

--5-5-5-5-5-5-5-5-
---0----------0--0-
--5--5-5--5-5--0--
---5---5-5--5-5-0--

--5-5-5-5-5-5-5-5-
---0----------0--0-
--5--5-5--5-5--0--
---4---4-4--4-4-0--



------------------
-------------------
--------------15--
-(15)---------------

-15---------------
-(15)----15--15h16-
-15------16-------
-----------16-------

------------------
-------------------
------------------
--------------------

------------------
-------------------
------------------
--------------------

------------------
-------------------
------------------
--------------------

------------------
-------------------
------------------
--------------------



 Gtr III

------------------
-------------------
------------------
--------------------

------------------
-------------------
------------------
--------------------

--7---------------
--(7)---------7--8-
--7-------8---12--
-(12)-------8-------

------------------
-------------------
------------------
--------------------

------------------
-------------------
------------------
--------------------

------------------
-------------------
------------------
--------------------



  Bb/G               D5                N.C.
                       PM-------------------------------------------------

------------------
-----------------
-----------------
------------------

------------------
-----------------
-----------------
------------------

------------------
-----------------
-----------------
------------------

--8-8-8-8-8-8-8-8-
-----------------
-------1---------
---1-------4------

--5-5-5-5-5-5-5-5-
---0---------0-0-
---5------0---5--
-------0----------

--5-5-5-5-5-5-5-5-
---0---------0-0-
-----------------
------------------



------------------
-----------------
-----------------
----------------

-15---------------
-(15)------------
-----------------
----------------

------------------
-----------------
-(14)--------14--
-(14)-----15----

------------------
-----------------
-----------------
----------------

------------------
-----------------
-----------------
----------------

------------------
-----------------
-----------------
----------------



------------------
-----------------
---5---6------5--
---6-------6----

------4---6-------
-------4--6------
-----------------
----------------

--7-----------7---
---7---------7---
----------7------
-------7--------

------------------
-----------------
-----------------
----------------

------------------
-----------------
-----------------
----------------

------------------
-----------------
-----------------
----------------



  Bb/G               D5                  Bb/G         D5    D/F#           D5
                       PM-----------
                  PM---------------------
                  PM

------------------
-------------------
------------------
-------------------

------------------
-------------------
------------------
-------------------

------------------
-------------------
------------------
-------------------

--8-8-8-8-8-8-8-8-
-------------------
--8--8-8--8-8-----
---7---7-7--7-7----

--5-5-5-5-5-5-5-5-
---0----------0--0-
--5--5-5--5-5--0--
---5---5-5--5-5-0--

--5-5-5-5-5-5-5-5-
---0----------0--0-
--5--5-5--5-5--0--
---4---4-4--4-4-0--



------------------
-------------------
--------------18--
-(18)------17-------

-15---------------
-(15)----15--15h16-
-15------16-------
--------------------

------------------
-------------------
------------------
--------------------

------------------
-------------------
------------------
--------------------

------------------
-------------------
------------------
--------------------

------------------
-------------------
------------------
--------------------



------------------
-------------------
------------------
--------------------

------------------
-------------------
--------------11--
-(11)------10-------

--7---------------
--(7)---------7h=8p
==7-------8-------
--------------------

------------------
-------------------
------------------
--------------------

------------------
-------------------
------------------
--------------------

------------------
-------------------
------------------
--------------------



                                                    H.=H
  Bb/G               D5              N.C.
                       PM------------------------------------------

------------------
---------------
--------------
----------------

------------------
---------------
--------------
----------------

------------------
---------------
--------------
----------------

--8-8-8-8-8-8-8-8-
---------------
-----1--------
--1-----4-------

--5-5-5-5-5-5-5-5-
---0-------0-0-
--5-----0--5--
-----0----------

--5-5-5-5-5-5-5-5-
---0-------0-0-
--------------
----------------



------------------
---------------
-17-----------
-22----------


-18---------------
-(18)----------
--------------
-------------


------------------
---------------
--------------
-------------


------------------
---------------
--------------
-------------


------------------
---------------
--------------
-------------


------------------
---------------
--------------
-------------



------------------
---------------
--------------
-------------


--6---------------
--(6)----------
-10-----------
-11----------


------------------
---------------
--------------
-------------


------------------
---------------
--------------
-------------


------------------
---------------
--------------
-------------


------------------
---------------
--------------
-------------



   \"Too late to wake...\"
    Q=185
    F#G5       G5F#5
    Gtrs I, II
    PM----------------------


--------------------------


o-------------------------


--------------------------


--------------------------


o-4-5-5-5-5--5-4-4-4-4----


--4-5-5-5-5--5-4-4-4-4----



 1.,2.,3.                        4.
  F#G5       G5  A5  F#5 G5      F#G5       D5
 -----------------------------------------------------

                              4x

-----------------------------
------------------------

----------------------------o
------------------------

-----------------------------
------------------------

-----------------------------
------------------------

-4-5-5-5-5--5-5-7-7-4-4-5-5-o
-4-5-5-5-5--0-0-0-0-0-0-

-4-5-5-5-5--5-5-7-7-4-4-5-5--
-4-5-5-5-5--0-0-0-0-0-0-



    D5
   4/4                     5/4
    PM---------------------------------------------------

                                                            3x

------------------------
---------------------------------


o-----------------------
--------------------------------o


------------------------
---------------------------------


------------------------
---------------------------------


o-0-0-0-0-0--0-0-0-0-0--
-0-0-0-0-0--0-0-0-0-0-0-0-0-0---o


--0-0-0-0-0--0-0-0-0-0--
-0-0-0-0-0--0-0-0-0-0-0-0-0-0----



  D5
 4/4
  PM---------------------------------------------------

-----------------------
------------------------------

-----------------------
------------------------------

-----------------------
------------------------------

-----------------------
------------------------------

-0-0-0-0-0--0-0-0-0-0--
-0-0-0-0-0--0-0-0-0-0-0-0-0---

-0-0-0-0-0--0-0-0-0-0--
-0-0-0-0-0--0-0-0-0-0-0-0-0---



  Q=165
  D5
 3/4

--------
--------


--------
--------


--------
--------


-0------
-(0)----


-0------
-(0)----


-0------
-(0)----



 Interlude
  Gm                            Bbm
  Gtr IV

--------------
--------------
--------------
--------------

--------------
--------------
--------------
--------------

--------------
--------------
--------------
--------------

--8-----8-----
--8-----8-----
-11----11-----
-11----11-----

--x---x-x-x-x-
--x---x-x-x-x-
--x--x--x-x-x-
--x--x--x-x-x-

--5---5-5-5-5-
--5---5-5-5-5-
--8--8--8-8-8-
--8--8--8-8-8-



 Gtrs I, II

                 >

--------------
--------------
--------------
--------------

--------------
--------------
--------------
--------------

--------------
--------------
--------------
--------------

-(0)----------
-(0)----------
--------------
--------------

-(0)----------
-(0)----------
--------------
--------------

-(0)----------
-(0)----------
--------------
--------------



  F#sus2  F#m     F#sus2  F#m     D

---------------
---------------
------------
------------

---------------
---------------
------------
------------

---------------
---------------
------------
------------

-6h=7----7---7-
-6h=7----7---7-
-4----4-----
-4----4-----

-x-(x)-x-x-x-x-
-x-(x)-x-x-x-x-
-x--x-x-x-x-
-x--x-x-x-x-

-4-(4)-4-4-4-4-
-4-(4)-4-4-4-4-
-0--0-0-0-0-
-0--0-0-0-0-



---------------
---------------
------------
------------

---------------
---------------
------------
------------

---------------
---------------
------------
------------

---------------
---------------
------------
------------

---------------
---------------
------------
------------

---------------
---------------
------------
------------



  Gm                        Bbm

------------
------------
--------------
--------------

------------
------------
--------------
--------------

------------
------------
--------------
--------------

-8----8-----
-8----8-----
-11----11-----
-11----11-----

-x--x-x-x-x-
-x--x-x-x-x-
--x--x--x-x-x-
--x--x--x-x-x-

-5--5-5-5-5-
-5--5-5-5-5-
--8--8--8-8-8-
--8--8--8-8-8-



 Gtr II

------------
------------
--------------
--------------

------------
------------
--------------
--------------

------------
------------
--------------
--------------

-8----------
-8----------
-11-----------
-11-----------

------------
------------
--------------
--------------

------------
------------
--------------
--------------



  F#sus2  F#m     F#sus2  F#m     D

---------------
---------------
------------
------------

---------------
---------------
------------
------------

---------------
---------------
------------
------------

-6h=7----7---7-
-6h=7----7---7-
-4----4-----
-4----4-----

-x-(x)-x-x-x-x-
-x-(x)-x-x-x-x-
-x--x-x-x-x-
-x--x-x-x-x-

-4-(4)-4-4-4-4-
-4-(4)-4-4-4-4-
-0--0-0-0-0-
-0--0-0-0-0-



---------------
---------------
------------
------------

---------------
---------------
------------
------------

---------------
---------------
------------
------------

-7-------------
-7-------------
-7----------
-7----------

---------------
---------------
------------
------------

---------------
---------------
------------
------------



    Bb/G
    Gtr I

--------------------
----------15-------


o-------15h16p15----
-------15----15----


-----15----------15-
----15----------15-


--17----------------
-17----------------


o-------------------
-------------------


--------------------
-------------------



   Gtr V

--------------------
-------------------


o-------------------
-------------------


--------------------
-------------------


---8----------------
--8----------------


o--5----------------
--5----------------


---5----------------
--5----------------



  C#/Bb

----------15-------
-------------------

-------15----15----
-------15h16p15----

----15----------15-
----15----------15-

-17----------------
-17----------------

-------------------
-------------------

-------------------
-------------------



-------------------
-------------------

-------------------
-------------------

-------------------
-------------------

-11----------------
-11----------------

--8----------------
--8----------------

--8----------------
--8----------------



  A/F#

-------------------
----------14-------

-------14h15p14----
-------14----14----

----14----------14-
----14----------14-

-16----------------
-16----------------

-------------------
-------------------

-------------------
-------------------



-------------------
-------------------

-------------------
-------------------

-------------------
-------------------

--7----------------
--7----------------

--4----------------
--4----------------

--4----------------
--4----------------



  D

-------------------
----------14--------


-------14h15p14----
-------14----14----o


----14----------14-
----14----------14--


-16----------------
-16-----------------


-------------------
-------------------o


-------------------
--------------------



-------------------
--------------------


-------------------
-------------------o


-------------------
--------------------


--4----------------
--4-----------------


--0----------------
--0----------------o


--0----------------
--0-----------------



    Bb/G

--------------------
----------15-------


o-------15h16p15----
-------15----15----


-----15----------15-
----15----------15-


--17----------------
-17----------------


o-------------------
-------------------


--------------------
-------------------



   Gtr II

--------15h17p15----
-------15h18p15----


o----15----------15-
----15----------15-


--15----------------
-15----------------


--------------------
-------------------


o-------------------
-------------------


--------------------
-------------------



   Gtr V

--------------------
-------------------


o-------------------
-------------------


--------------------
-------------------


---8----------------
--8----------------


o--5----------------
--5----------------


---5----------------
--5----------------



  C#/Bb

----------15-------
-------------------

-------15----15----
-------15h16p15----

----15----------15-
----15----------15-

-17----------------
-17----------------

-------------------
-------------------

-------------------
-------------------



-------15h18p15----
-------15h17p15----

----15----------15-
----15----------15-

-15----------------
-15----------------

-------------------
-------------------

-------------------
-------------------

-------------------
-------------------



-------------------
-------------------

-------------------
-------------------

-------------------
-------------------

-11----------------
-11----------------

--8----------------
--8----------------

--8----------------
--8----------------



  A/F#

-------------------
----------14-------

-------14h15p14----
-------14----14----

----14----------14-
----14----------14-

-16----------------
-16----------------

-------------------
-------------------

-------------------
-------------------



-------12h14p12----
-------12h17p12----

----14----------14-
----14----------14-

-14----------------
-14----------------

-------------------
-------------------

-------------------
-------------------

-------------------
-------------------



-------------------
-------------------

-------------------
-------------------

-------------------
-------------------

--7----------------
--7----------------

--4----------------
--4----------------

--4----------------
--4----------------



  D

-------------------
----------14--------


-------14h15p14----
-------14----14----o


----14----------14-
----14----------14--


-16----------------
-16-----------------


-------------------
-------------------o


-------------------
--------------------



-------12h14p12----
-------12h17p12-----


----14----------14-
----14----------14-o


-14----------------
-14-----------------


-------------------
--------------------


-------------------
-------------------o


-------------------
--------------------



-------------------
--------------------


-------------------
-------------------o


-------------------
--------------------


--4----------------
--4-----------------


--0----------------
--0----------------o


--0----------------
--0-----------------



 Reprise
  Q=210
  G5
 4/4
  Gtr I
  PM--
   PM  PM--
       PM  PM--
     PM--

---------------------
---------------------

---------------------
---------------------

---------------------
---------------7-----

-------8---7---------
-7---5---------------

---------------------
---------------------

-5-5-5---5---5-5-5-5-
---5---5-5-5-5---5---



 Gtr II

---------------------
-------------------

---------------------
-------------------

---------------------
-------------------

-5-----5---5---------
-5---5---------5---

-5-----5---5---------
-5---5---------5---

-5-----5---5---------
-5---5---------5---



 -----
   PM  PM--
       PM  PM-------------
     PM

---------------------
----------------------

---------------------
----------------------

---------------------
---------------7------

-------8---7---------
-7---5----------------

---------------------
----------------------

-5-5-5---5---5-5-5-5-
---5---5-5-5-5---5----



---------------------
--------------------

---------------------
--------------------

---------------------
--------------------

-5-------------------
-5------------------

-5-------------------
-5------------------

-5-------------------
-5------------------



  D5
  PM--
   PM  PM--
       PM  PM------------
     PM

---------------------
---------------------

---------------------
---------------------

---------------------
---------------------

-------5---4---------
---------------5-----

---------------------
-6---5---------------

-0-0-0---0---0-0-0-0-
---0---0-0-0-0---0---



---------------------
-------------------

---------------------
-------------------

---------------------
-------------------

-0-----0---0---------
-0---0---------0---

-0-----0---0---------
-0---0---------0---

-0-----0---0---------
-0---0---------0---



  N.C.
          PM  PM
     PM  PM-------------

-------------------
--------------------

-------------------
--------------------

-------------------
--------------------

-4h5p4-------------
--------------------

-------6---5-----1-
---0-----4-4-4------

---------0---0-0---
-0---0-0-4-4-4------



         PM  PM
     PM  PM-------------

-------------------
--------------------

-------------------
--------------------

-------------------
--------------------

-4h5p4-------------
--------------------

-------6---5-----1-
---0-----4-4-4------

---------0---0-0---
-0---0-0-4-4-4------



  N.C.
  Gtrs I, II
  PM--
   PM  PM--
       PM  PM--
     PM--

---------------------
---------------------

---------------------
---------------------

---------------------
---------------7-----

-------8---7---------
-7---5---------------

---------------------
---------------------

-5-5-5---5---5-5-5-5-
---5---5-5-5-5---5---



 -----
   PM  PM--
       PM  PM------------
     PM

---------------------
---------------------

---------------------
---------------------

---------------------
---------------7-----

-------8---7---------
-7---5---------------

---------------------
---------------------

-5-5-5---5---5-5-5-5-
---5---5-5-5-5---5---



  N.C.
  PM--
   PM  PM--
       PM  PM--
     PM    PM--
   PM--
     PM------------

---------------------
-------------------
-----------------
-----------------

---------------------
-------------------
-----------------
---------7-------

---------------------
-------------------
-----------------
-7---------------

-------5---4---------
-----4---------5---
-7-------8-------
-----------------

---------------------
-6-----------------
-----------------
-----------------

-0-0-0---0---0-0-0-0-
---0---0-0-0-0---0-
---0-0-0---0-0-0-
---0-0-0---------



   Outro
    Q=170
    G5
    Gtr I
    PM------------
        PM--
     PM--------------


-----------------------
---------------------------


o----------------------
---------------------------


-----------------------
---------------------------


-----------------------
---------------------------


o-5-5-5-5---5-5-5------
-5-5-5-----5-5-5-5-5-5-----


--5-5-5-5---5-5-5------
-5-5-5-----5-5-5-5-5-5-----



   Gtr II

   TP      TPTPTP   TPTP  TP    TPTPTP      TP  TP

-----------------------
-------------------------


o----------------------
-------------------------


-----------------------
-------------------------


--5-------0-4-5----0-4-
-5-----0-5-8-------0---8-


o----------------------
-------------------------


-----------------------
-------------------------



                           1.                           2.
  G5
   PM-------------
    PM----
      PM--------------------
      PM-------------

------------------------
---------------------------
-------------------------

------------------------
--------------------------o
-------------------------

------------------------
---------------------------
-------------------------

------------------------
---------------------------
-------------------------

--5-5-5-5---5--5-5----5-
-5-5------5-5-5-5-5-5-5-5-o
-5-5------5-5-5-5-5------

--5-5-5-5---5--5-5----5-
-5-5------5-5-5-5-5-5-5-5--
-5-5------5-5-5-5-5------



  TP      TPTP TP   TPTP  TP   TPTPTP      TP  TP      TP   TPTPTP      TP TP

------------------------
---------------------------
-----------------------

------------------------
--------------------------o
-----------------------

------------------------
---------------------------
-----------------------

-12-------0-8-12----0-8-
-7----0-5-4-------0---4----
-7----0-5-4-------0--4-

------------------------
--------------------------o
-----------------------

------------------------
---------------------------
-----------------------



    G5
    Gtr I
    TP      TPTPTP   TPTP  TP    TPTP TP      TP   TP

-----------------------
---------------------------


o----------------------
---------------------------


-----------------------
---------------------------


--5-------0-4-5----0-4-
-5-----0-5--8-------0----8-


o----------------------
---------------------------


-----------------------
---------------------------



   Gtr III

   TP      TPTPTP   TPTP  TP    TPTP TP      TP   TP

-----------------------
---------------------------


o----------------------
---------------------------


-----------------------
---------------------------


--8-------0-7-8----0-7-
-8-----0-8-12-------0---12-


o----------------------
---------------------------


-----------------------
---------------------------



   Gtr II

   PM------------
        PM--
      PM---------------


-----------------------
-----------------------------


o----------------------
-----------------------------


-----------------------
-----------------------------


-----------------------
-----------------------------


o-5-5-5-5---5-5-5------
-5-5-5------5-5-5-5-5-5------


--5-5-5-5---5-5-5------
-5-5-5------5-5-5-5-5-5------



  G5
   TP      TP TP TP   TP TP   TP   TPTPTP      TP  TP

--------------------------
---------------------------

--------------------------
---------------------------

--------------------------
---------------------------

-12-------0--8-12----0--8-
--7----0-5-4-------0---4---

--------------------------
---------------------------

--------------------------
---------------------------



  TP      TP TP TP   TP TP   TP   TPTPTP      TP  TP

--------------------------
---------------------------

--------------------------
---------------------------

--------------------------
---------------------------

-17-------0-12-17----0-12-
-10----0-8-7-------0---7---

--------------------------
---------------------------

--------------------------
---------------------------



  PM--------------
     PM-----
      PM----------------

--------------------------
-----------------------------

--------------------------
-----------------------------

--------------------------
-----------------------------

--------------------------
-----------------------------

--5-5-5-5----5--5-5-----5-
--5-5------5-5-5-5-5-5-5-5---

--5-5-5-5----5--5-5-----5-
--5-5------5-5-5-5-5-5-5-5---



  G5
  TP      TPTPTP   TPTP  TP    TPTP TP      TP   TP

----------------------
---------------------------

----------------------
---------------------------

----------------------
---------------------------

-5-------0-4-5----0-4-
-5-----0-5--8-------0----8-

----------------------
---------------------------

----------------------
---------------------------



 TP      TPTPTP   TPTP  TP    TPTP TP      TP   TP

----------------------
---------------------------

----------------------
---------------------------

----------------------
---------------------------

-8-------0-7-8----0-7-
-8-----0-8-12-------0---12-

----------------------
---------------------------

----------------------
---------------------------



 PM------------
        PM--
      PM---------------

----------------------
-----------------------------

----------------------
-----------------------------

----------------------
-----------------------------

----------------------
-----------------------------

-5-5-5-5---5-5-5------
-5-5-5------5-5-5-5-5-5------

-5-5-5-5---5-5-5------
-5-5-5------5-5-5-5-5-5------



  G5
   TP      TP TP TP   TP TP   TP   TPTPTP      TP TP

--------------------------
-------------------------


--------------------------
------------------------o


--------------------------
-------------------------


-12-------0--8-12----0--8-
--7----0-5-4-------0--4--


--------------------------
------------------------o


--------------------------
-------------------------



  TP      TP TP TP   TP TP   TP   TPTPTP      TP TP

--------------------------
-------------------------


--------------------------
------------------------o


--------------------------
-------------------------


-17-------0-12-17----0-12-
-10----0-8-7-------0--7--


--------------------------
------------------------o


--------------------------
-------------------------



  PM--------------
     PM-----
      PM---------------

--------------------------
----------------------------

--------------------------
------------------------o---

--------------------------
----------------------------

--------------------------
----------------------------

--5-5-5-5----5--5-5-----5-
--5-5------5-5-5-5-5----o---

--5-5-5-5----5--5-5-----5-
--5-5------5-5-5-5-5--------

 


/
How To Set Up Higher Praise As Your Home Page
Copyright 1999, Higher Praise HigherPraise,Inc. All rights reserved. Terms of Use

Enjoy A Life Changing Experience

 
 
 
HigherPraise, Higher Praise, HigherPraise, Higher Praise, HigherPraise

Members..Sign Up. LogIn

 
 

Higher Praise Other Sites
 
 

HigherPraise.org/
Praise And Worship
www.higherpraise.org

HigherPraise.net
Christian Resources
www.higherpraise.net

HigherPraiseTube.com
Videos And Audios
www.higherpraisetube.com.


ChristianLyrics.org

Lyrics And Chrords
www.christianlyrics.org

ChristianChordsLyrics

Lyrics And Chrords
www.christianchordslyrics.com

ChristianChordLyrics

Lyrics And Chrords
www.christianchordlyrics.com

WorshipLyrics.org
10.000 Illustrations
www.worshiplyrics.org

WorshipLyrics.net
10.000 Illustrations
www.worshiplyrics.net

PraiseLyrics.com
PowerPoint Lyrics

www.praiselyrics.com

PraiseLyrics.org
PowerPoint Lyrics

www.praiselyrics.org

1GodTube.com
Chistian Videos

www1godtube..com

OneGodTube.com
Chistian Videos

www.onegodtube..com

 

/
Copyright 1999 - 2019, Higher Praise™ HigherPraise™,Inc. All rights reserved. Terms of Use