Higher Praise - Guitar Chords, Lyrics  GuitarTabs -  Praise nad Worship Music And Christian Songs

Higher Praise - Guitar Tabs, Guitar Chords, Lyrics
   Lyrics, Chords And Tabs
   Popular Lyrics Chords Tab
   Power Point Lyrics
   Praise & Worship Music
   Christian Music Videos
   15900 Videos & Audios
   Midi Files
   Worship Questions
   Christmas Chords, Lyrics
   Lyrics, Chords Tabs Rated

Sermon Outlines And Audio Sermons
   9344 Sermon Outlines
   N.T. Sermon Outlines
   O.T. Sermon Outlines
   Special Guest Outlines
   10.000 Illustrations
   Sunday School Studies
   Bible College Studies
   Greatest Preachers
   Bible Research Tools
Audio Sermons
   2895 Audio Sermons
   85 Sermon Videos
   291 Special Guests Serm

   Complete Audio Bible
Higher Praise Sunday School Teaching
   Children's NT Studies
   Children's OT Studies

   98 Children's Midis
   Gospel For Kids Movie
   Children's JESUS Film
Higher Praise Christian Video Library ,Videos
   Christian Television
   TBN TV Live
   15,000 Videos - HP Tube
   712 Youth Music Vids
  Christian Video Library
   Praise Videos #1 & #2
   85 Sermon Videos
   Prophecy Film -Videos
   JESUS Film -Video
   Childrens JESUS Film
   Gospel For Kids Movie
   Passion Of The Christ
   Noah, Sodom, Sinai, Ark
   Tsunami Videos Photos
News And Information
   Testimonies
   Submit Lyrics, Tabs, Serm
   10.000 Illustrations
   Bible College Course
   Clipart & Web Graphics
   Greatest Preachers
   Complete Talking Bible
   Christian Chat Rooms
   Links Church Resource
   HP Statement Of Faith
Download Clipart
   Audio Sermons
   Clipart & Web Graphics
   Church Administration
   Bible Study Software
   Screen Savers Software
   Verse A Day Software
   Educational Games
   Trade Center Photos

   Soft. Search Engine
Higher Praise News
   Current News
    Archived News
   Submit News
   Newsletter   Higher Praise Interact Prayer
   Prayer For All Needs
   
Submit Lyrics, Sermons
   
Contact Higher Praise
   
Advertising 
   Privacy Policy
//
He Died For You,  Click For Answer! This Is Who Jesus Is Video

'
 
0-9 A B C D E F G H I J K L M N O P Q R S T U V W X Y Z
.

//
Click For Printable...Version Of This File
 

Shadows Are Security Album


by As I Lay Dying




              OK this isnt all mine I copied and pasted butI thought they needed an 
one so I did it  If you see peoples names on here give them credit not me.


MEANING IN TRAGEDY
                          As recorded by As I Lay Dying
                   (From the 2005 Album SHADOWS ARE SECURITY)
                     Copyright (c) Metal Blade Records 2005



Version 1.0 June 2005

Tunnings:
Gtr I (C G C F A D) - '1'
Gtr II (C G C F A D) - '2'
Gtr III (C G C F A D) - '3'

 Intro
  Q=177
 4/4
  Gtrs I, II
    PM    PM  PM    PM        PM  PM    PM    PM  PM     PM         PM

-----------------
-----------------
-----------------
--------------------

-----------------
-----------------
-----------------
--------------------

-----------------
---------2-------
-----------------
-----------2--------

-3---2-----------
---5-3-5-----5---
-3---2-----------
-----3-2-3-----5----

-------3---0---1-
-----------------
-------3---0---1-
--------------------

---0-----0---0---
-0---------0---0-
---0-----0---0---
--0----------0---0--



 Gtr III

-----------------
-----------------
-----------------
--------------------

-----------------
-----------------
-----------------
--------------------

-----------------
-----------------
-----------------
--------------------

-3---------7---8-
-----------------
-3---------7---5-
-(5)-------3--------

-3---------7---8-
-----------------
-3---------7---5-
-(5)-------3--------

-3---------7---8-
-----------------
-3---------7---5-
-(5)-------3--------



  Gtrs I, II
    PM     PM  PM    PM        PM  PM    PM     PM  PM     PM         PM

------------------
-----------------
------------------
-------------------

------------------
-----------------
------------------
-------------------

------------------
---------2-------
------------------
-----------2-------

-3---2------------
---5-3-5-----5---
-3---2------------
-----3-2-3-----5---

--------3---0---1-
-----------------
--------3---0---1-
-------------------

---0------0---0---
-0---------0---0-
---0------0---0---
--0----------0---0-



 Gtr III

------------------
-----------------
------------------
-------------------

------------------
-----------------
------------------
-------------------

------------------
-----------------
------------------
-------------------

-3-----10---7---8-
-----------------
-3-----10---7---5-
-(5)-------3-------

-3-----10---7---8-
-----------------
-3-----10---7---5-
-(5)-------3-------

-3-----10---7---8-
-----------------
-3-----10---7---5-
-(5)-------3-------



 Verse
  Gtr I
    PM    PM  PM    PM         PM  PM    PM    PM  PM    PM         PM

-----------------
------------------
-----------------
------------------

-----------------
------------------
-----------------
------------------

-----------------
----------2-------
-----------------
----------2-------

-3---2-----------
---5-3-5------5---
-3---2-----------
---3-2-3------5---

-------3---0---1-
------------------
-------3---0---1-
------------------

---0-----0---0---
-0----------0---0-
---0-----0---0---
-0----------0---0-



 Gtr II

   PM    PM  PM    PM         PM  PM    PM    PM  PM    PM         PM

-----------------
------------------
-----------------
------------------

-----------------
------------------
-----------------
------------------

-2---------------
------------------
-2---------------
---2-0-2----------

-----5-3---------
---2-0-2-/3---2---
-----5-3---------
---------/3---2---

-----------3---1-
------------------
-----------3---1-
------------------

---0-----0---0---
-0----------0---0-
---0-----0---0---
-0----------0---0-



  Gtr I
        PM    PM  PM     PM           PM  PM

---------------------
---------------------

---------------------
---------------------

---------------------
------------2--------

-3-------2-----------
-----5-3-5-------5---

-----------3---0---1-
---------------------

-------0-----0---0---
--0------------0---0-



 Gtr II

       PM    PM  PM     PM           PM  PM

---------------------
---------------------

---------------------
---------------------

-2-------------------
---------------------

---------5-3---------
-----2-0-2-/3----2---

---------------3---1-
---------------------

-------0-----0---0---
--0------------0---0-



 Gtr III

---------------------
---------------------

-8b10================
=[8]r======(8)-------

---------------------
---------------------

---------------------
---------------------

---------------------
---------------------

---------------------
---------------------



       PM     PM   PM       PM             PM

-----------------------
------------------------

-----------------------
------------------------

-----------------------
----------------2-------

---3----2--------------
------3---2--3------5---

-----------3----0----1-
------------------------

------0------0----0----
---0--------------0---0-



      PM     PM   PM       PM             PM

-----------------------
------------------------

-----------------------
------------------------

---2-------------------
------2---0--2----------

--------5--3-----------
---------------/3---2---

----------------3----1-
------------------------

------0------0----0----
---0--------------0---0-



                     ~~~~~~~~~          ~~

-----------------------
------------------------

-/11-10-8-10-8---------
------------------------

---------------10-9-10-
-(10)---/12-10--9-------

-----------------------
------------------------

-----------------------
------------------------

-----------------------
------------------------



  Gtrs I, II
       PM    PM  PM      PM         PM  PM    PM    PM  PM    PM        PM

--------------------
--------------------
-----------------
-----------------

--------------------
--------------------
-----------------
-----------------

--------------------
------------2-------
-----------------
---------2-------

---3----2-----------
------5-3-5-----5---
-3---2-----------
---3-2-3-----5---

----------3---0---1-
--------------------
-------3---0---1-
-----------------

------0-----0---0---
---0----------0---0-
---0-----0---0---
-0---------0---0-



 Gtr III

--------------------
--------------------
-----------------
-----------------

--------------------
--------------------
-----------------
-----------------

-[12]---------------
-(12)---------------
-----------------
-----------------

--------------------
--------------------
-----------------
-----------------

--------------------
--------------------
-----------------
-----------------

--------------------
--------------------
-----------------
-----------------



  Gtrs I, II
    PM    PM  PM    PM        PM  PM    PM    PM  PM    PM        PM

-----------------
-----------------
-----------------
-----------------

-----------------
-----------------
-----------------
-----------------

-----------------
---------2-------
-----------------
---------2-------

-3---2-----------
---5-3-5-----5---
-3---2-----------
---3-2-3-----5---

-------3---0---1-
-----------------
-------3---0---1-
-----------------

---0-----0---0---
-0---------0---0-
---0-----0---0---
-0---------0---0-



   Verse
    Gtr I
      PM    PM  PM    PM         PM  PM    PM    PM  PM    PM         PM

------------------
------------------
-----------------
--------------------


o-----------------
------------------
-----------------
-------------------o


------------------
----------2-------
-----------------
----------2---------


--3---2-----------
---5-3-5------5---
-3---2-----------
---3-2-3------5-----


o-------3---0---1-
------------------
-------3---0---1-
-------------------o


----0-----0---0---
-0----------0---0-
---0-----0---0---
-0----------0---0---



   Gtr II

     PM    PM  PM    PM         PM  PM    PM    PM  PM    PM         PM

------------------
------------------
-----------------
--------------------


o-----------------
------------------
-----------------
-------------------o


--2---------------
------------------
-2---------------
---2-0-2------------


------5-3---------
---2-0-2-/3---2---
-----5-3---------
---------/3---2-----


o-----------3---1-
------------------
-----------3---1-
-------------------o


----0-----0---0---
-0----------0---0-
---0-----0---0---
-0----------0---0---



 Bridge
  Gtrs I, II

-----------------
-----------------

-----------------
-----------------

-7-7-7-7-7-7-7-7-
-7-7-7-7-7-7-7-7-

-----------------
-----------------

-5-5-5-5-5-5-5-5-
-5-5-5-5-5-5-5-5-

-----------------
-----------------



-------------------------
---------------------

-------------------------
---------------------

-14-14-14-14-14-14-14-14-
-12-12-12-12-9-9-9-9-

-------------------------
---------------------

-12-12-12-12-12-12-12-12-
-10-10-10-10-7-7-7-7-

-------------------------
---------------------



 Pre-Verse
  Q=172
  Gtr I
  PM--
   PM--
     PM--
   PM---------

-----------------
--------------------

-----------------
--------------------

-----------------
--------------------

-----------------
--------------------

-0-0-0-5-0-0-0-8-
-0-0-0-7-0-0-0-10---

-0-0-0---0-0-0---
-0-0-0---0-0-0------



 Gtr II

 PM--
   PM--
     PM--
   PM---------

-----------------
--------------------

-----------------
--------------------

-----------------
--------------------

-----------------
--------------------

-0-0-0---0-0-0---
-0-0-0---0-0-0------

-0-0-0---0-0-0---
-0-0-0---0-0-0------



  PM--
   PM--
     PM-------------------------
   PM

-----------------
----------------------------

-----------------
----------------------------

-----------------
----------------------------

-----------------
----------------------------

-0-0-0-5-0-0-0-8-
-0-0-0-7-0---8---7----------

-0-0-0---0-0-0---
-0-0-0---0-----------10-----



 PM-------------------------------------------

-----------------
----------------------------

-----------------
----------------------------

-----------------
----------------------------

-----------------
----------------------------

-0-0-0-0-0-0-0-0-
-0-0-0-0-0-0-0-0-0-0--0-0---

-0-0-0-0-0-0-0-0-
-0-0-0-0-0-0-0-0-0-0--0-0---



   Verse
    Gtrs I, II
    PM--
   PM------
     PM--
   PM-------------


----------------------
------------------------


o---------------------
------------------------


----------------------
------------------------


----------------------
------------------------


o-0-0-0-5-0-0-0-0-0-8-
-0-0-0-7-0-0-0-0-0-10---


--0-0-0---0-0-0-0-0---
-0-0-0---0-0-0-0-0------



  PM--
   PM------
     PM---------------------
   PM

---------------------
------------------------

---------------------
--------------------o---

---------------------
------------------------

---------------------
------------------------

-0-0-0-5-0-0-0-0-0-8-
-------7---8-7------o---

-0-0-0---0-0-0-0-0---
-5-5-5---8-----10-------



  Gtr I
  PM------
   PM--
     PM------
   PM---------

---------------------
------------------------

---------------------
------------------------

---------------------
------------------------

---------------------
------------------------

-0-0-0-0-0-5-0-0-0-8-
-0-0-0-0-0-7-0-0-0-10---

-0-0-0-0-0---0-0-0---
-0-0-0-0-0---0-0-0------



 Gtr II

 PM------
   PM--
     PM------
   PM---------

---------------------
------------------------

---------------------
------------------------

---------------------
------------------------

---------------------
------------------------

-0-0-0-0-0-5-0-0-0-8-
-0-0-0-0-0-7-0-0-0-10---

-0-0-0-0-0---0-0-0---
-0-0-0-0-0---0-0-0------



  PM------
   PM--
     PM-----------------
   PM

---------------------
--------------------

---------------------
--------------------

---------------------
--------------------

---------------------
--------------------

-0-0-0-0-0-5-0-0-0-8-
-------7---8-7------

-0-0-0-0-0---0-0-0---
-5-5-5---8-----10---



 PM------
   PM--
     PM-----------------
   PM

---------------------
--------------------

---------------------
--------------------

---------------------
--------------------

---------------------
-----------7-5------

-0-0-0-0-0-5-0-0-0-8-
-------7--------7---

-0-0-0-0-0---0-0-0---
-5-5-5---8----------



  Gtr I
  PM--
   PM--
   PM    PM--
   PM-------------
   PM

---------------------
------------------------

---------------------
------------------------

---------------------
------------------------

---------------------
------------------------

-0-0-0-5-0-0-0-0-0-8-
-0-0-0-7-0-0-0-0-0-10---

-0-0-0---0-0-0-0-0---
-0-0-0---0-0-0-0-0------



 Gtr II

 PM--
   PM--
   PM    PM--
   PM-------------
   PM

---------------------
------------------------

---------------------
------------------------

---------------------
------------------------

---------------------
------------------------

-0-0-0-5-0-0-0-0-0-8-
-0-0-0-7-0-0-0-0-0-10---

-0-0-0---0-0-0-0-0---
-0-0-0---0-0-0-0-0------



  PM--
   PM--
   PM    PM-----------------
   PM

---------------------
--------------------

---------------------
--------------------

---------------------
--------------------

---------------------
--------------------

-0-0-0-5-0-0-0-0-0-8-
-------7---8-7------

-0-0-0---0-0-0-0-0---
-5-5-5---8-----10---



 PM--
   PM--
   PM

---------------------
------------------

---------------------
------------------

---------------------
------------------

---------------------
-5-------8--------

-0-0-0-5-0-0-0-0-0-8-
-5-------8--------

-0-0-0---0-0-0-0-0---
-5-------8--------



   Verse
    Q=177
    Gtrs I, II
      PM    PM  PM    PM        PM  PM    PM    PM  PM    PM        PM

------------------
-----------------
-----------------
-------------------


o-----------------
-----------------
-----------------
------------------o


------------------
---------2-------
-----------------
---------2---------


--3---2-----------
---5-3-5-----5---
-3---2-----------
---3-2-3-----5-----


o-------3---0---1-
-----------------
-------3---0---1-
------------------o


----0-----0---0---
-0---------0---0-
---0-----0---0---
-0---------0---0---



    Gtr I
      PM    PM  PM    PM         PM  PM    PM    PM  PM    PM         PM

------------------
------------------
-----------------
--------------------


o-----------------
------------------
-----------------
-------------------o


------------------
----------2-------
-----------------
----------2---------


--3---2-----------
---5-3-5------5---
-3---2-----------
---3-2-3------5-----


o-------3---0---1-
------------------
-------3---0---1-
-------------------o


----0-----0---0---
-0----------0---0-
---0-----0---0---
-0----------0---0---



   Gtr II

     PM    PM  PM    PM         PM  PM    PM    PM  PM    PM         PM

------------------
------------------
-----------------
--------------------


o-----------------
------------------
-----------------
-------------------o


--2---------------
------------------
-2---------------
---2-0-2------------


------5-3---------
---2-0-2-/3---2---
-----5-3---------
---------/3---2-----


o-----------3---1-
------------------
-----------3---1-
-------------------o


----0-----0---0---
-0----------0---0-
---0-----0---0---
-0----------0---0---



 Interlude
  Q=172
  Gtrs I, II

-------------------------
-----------------

-------------------------
-----------------

-10-10-10-10-10-10-10-10-
-7-7-7-7-7-7-7-7-

-------------------------
-----------------

--8--8--8--8--8--8--8--8-
-5-5-5-5-5-5-5-5-

-------------------------
-----------------



-------------------------
-----------------

-------------------------
-----------------

-10-10-10-10-10-10-10-10-
-9-9-9-9-9-9-9-9-

-------------------------
-----------------

--8--8--8--8--8--8--8--8-
-7-7-7-7-7-7-7-7-

-------------------------
-----------------



  Gtrs I, II

-------------------------
-------------------------

-------------------------
-------------------------

-12-12-12-12-12-12-12-12-
-10-10-10-10-10-10-10-10-

-------------------------
-------------------------

-10-10-10-10-10-10-10-10-
--8--8--8--8--8--8--8--8-

-------------------------
-------------------------



-------------------------
-------------------------

-------------------------
-------------------------

-14-14-14-14-14-14-14-14-
-15-15-15-15-15-15-15-15-

-------------------------
-------------------------

-12-12-12-12-12-12-12-12-
-13-13-13-13-13-13-13-13-

-------------------------
-------------------------



  Gtrs I, II

-------------------------
-----------------

-------------------------
-----------------

-10-10-10-10-10-10-10-10-
-7-7-7-7-7-7-7-7-

-------------------------
-----------------

--8--8--8--8--8--8--8--8-
-5-5-5-5-5-5-5-5-

-------------------------
-----------------



-------------------------
-----------------

-------------------------
-----------------

-10-10-10-10-10-10-10-10-
-9-9-9-9-9-9-9-9-

-------------------------
-----------------

--8--8--8--8--8--8--8--8-
-7-7-7-7-7-7-7-7-

-------------------------
-----------------



  Gtrs I, II

-------------------------
-------------------------

-------------------------
-------------------------

-12-12-12-12-12-12-12-12-
-10-10-10-10-10-10-10-10-

-------------------------
-------------------------

-10-10-10-10-10-10-10-10-
--8--8--8--8--8--8--8--8-

-------------------------
-------------------------



 Gtr III

-------------------------
-------------------------

-------------------------
-------------------------

-------------------------
-------------------------

-------------------------
-------------------------

-------------------------
-------------------------

-------------------------
-------------------------



-------------------------
-------------------------

-------------------------
-------------------------

-14-14-14-14-14-14-14-14-
-15-15-15-15-15-15-15-15-

-------------------------
-------------------------

-12-12-12-12-12-12-12-12-
-13-13-13-13-13-13-13-13-

-------------------------
-------------------------



-------------------------
-------------------------

-------------------------
-------------------------

-------------------------
--------------9-----9-10-

-------------------------
--8--7--8-10----12-------

-------------------------
-------------------------

-------------------------
-------------------------



 Verse
  Q=177
  Gtrs I, II

-------------------------
-------------------------

-------------------------
-------------------------

-10-10-10-10-10-10-10-10-
-10-10-10-10-10-10-10-10-

-------------------------
-------------------------

--8--8--8--8--8--8--8--8-
--8--8--8--8--8--8--8--8-

-------------------------
-------------------------



 Gtr III

-------------------------
-------------------------

-------------------------
-------------------------

--0--0-12p=0--0-10p=0--0-
--9--7p=0-10p=0--0--9--5-

-------------------------
-------------------------

-------------------------
-------------------------

-------------------------
-------------------------



-------------------------
-------------------------

-------------------------
-------------------------

-12-12-12-12-12-12-12-12-
-12-12-12-12-12-12-12-12-

-------------------------
-------------------------

-10-10-10-10-10-10-10-10-
-10-10-10-10-10-10-10-10-

-------------------------
-------------------------



-------------------------
-------------------------

-------------------------
-------------------------

--0--0-12p=0--0-10p=0--0-
--9--7p=0-10p=0--0--9--5-

-------------------------
-------------------------

-------------------------
-------------------------

-------------------------
-------------------------



  Gtrs I, II

-------------------------
-------------------------

-------------------------
-------------------------

-15-15-15-15-15-15-15-15-
-15-15-15-15-15-15-15-15-

-------------------------
-------------------------

-13-13-13-13-13-13-13-13-
-13-13-13-13-13-13-13-13-

-------------------------
-------------------------



 Gtr III

-------------------------
-------------------------

-------------------------
-------------------------

--0--0-12p=0--0-10p=0--0-
--9--7p=0-10p=0--0--9--5-

-------------------------
-------------------------

-------------------------
-------------------------

-------------------------
-------------------------



-------------------------
-------------------------

-------------------------
-------------------------

-14-14-14-14-14-14-14-14-
-14-14-14-14-14-14-14-14-

-------------------------
-------------------------

-12-12-12-12-12-12-12-12-
-12-12-12-12-12-12-12-12-

-------------------------
-------------------------



-------------------------
-------------------------

-------------------------
-------------------------

--0--0-12p=0--0-10p=0--0-
--9--7p=0-10p=0--0--9--5-

-------------------------
-------------------------

-------------------------
-------------------------

-------------------------
-------------------------



  Gtrs I, II

-------------------------
-------------------------

-------------------------
-------------------------

-10-10-10-10-10-10-10-10-
-10-10-10-10-10-10-10-10-

-------------------------
-------------------------

--8--8--8--8--8--8--8--8-
--8--8--8--8--8--8--8--8-

-------------------------
-------------------------



 Gtr III

-------------------------
-------------------------

-------------------------
-------------------------

--0--0-12p=0--0-10p=0--0-
--9--7p=0-10p=0--0--9--5-

-------------------------
-------------------------

-------------------------
-------------------------

-------------------------
-------------------------



-------------------------
-------------------------

-------------------------
-------------------------

-12-12-12-12-12-12-12-12-
-12-12-12-12-12-12-12-12-

-------------------------
-------------------------

-10-10-10-10-10-10-10-10-
-10-10-10-10-10-10-10-10-

-------------------------
-------------------------



-------------------------
-------------------------

-------------------------
-------------------------

--0--0-12p=0--0-10p=0--0-
--9--7p=0-10p=0--0--9--5-

-------------------------
-------------------------

-------------------------
-------------------------

-------------------------
-------------------------



  Gtrs I, II

-------------------------
-------------------------

-------------------------
-------------------------

-15-15-15-15-15-15-15-15-
-15-15-15-15-15-15-15-15-

-------------------------
-------------------------

-13-13-13-13-13-13-13-13-
-13-13-13-13-13-13-13-13-

-------------------------
-------------------------



 Gtr III

-------------------------
-------------------------

-------------------------
-------------------------

--0--0-12p=0--0-10p=0--0-
--9--7p=0-10p=0--0--9--5-

-------------------------
-------------------------

-------------------------
-------------------------

-------------------------
-------------------------



-------------------------
-------------------------

-------------------------
-------------------------

-14-14-14-14-14-14-14-14-
-14-14-14-14-14-14-14-14-

-------------------------
-------------------------

-12-12-12-12-12-12-12-12-
-12-12-12-12-12-12-12-12-

-------------------------
-------------------------



-------------------------
-------------------------

-------------------------
-------------------------

--0--0-12p=0--0-10p=0--0-
--------------9-----9-10-

-------------------------
--8--7--8-10----12-------

-------------------------
-------------------------

-------------------------
-------------------------



   Breakdown
    Q=172
    Gtr I

----------------------
-----------------------


o---------------------
-----------------------


----------------------
-----------------------


----------------------
-----------------------


o-------------------5-
---------------------5-


--0-0-0-0-0-0-0-0-0---
--0--0-0-0-0-0-0-0-0---



   Gtr II

----------------------
-----------------------


o---------------------
-----------------------


----------------------
-----------------------


--0-------------------
-(0)-------------------


o-0-------------------
-(0)-------------------


--0-------------------
-(0)-------------------



-----------------------
-----------------------


-----------------------
----------------------o


-----------------------
-----------------------


-----------------------
-----------------------


---------------------5-
-----8---7---8-7------o


--0--0-0-0-0-0-0-0-0---
--0----0---0-----10----



-----------------------
-----------------------


-----------------------
----------------------o


-----------------------
-----------------------


-(0)-------------------
-(0)-------------------


-(0)-------------------
-(0)------------------o


-(0)-------------------
-(0)-------------------



    Gtrs I, II

----------------------
---------------------


o---------------------
---------------------


----------------------
---------------------


----------------------
---------------------


o-------------------5-
-------------------5-


--0-0-0-0-0-0-0-0-0---
-0-0-0-0-0-0-0-0-0---



---------------------
---------------------


---------------------
--------------------o


---------------------
---------------------


---------------------
---------------------


-------------------5-
---8---7---8-7------o


-0-0-0-0-0-0-0-0-0---
-0---0---0-----10----



 Outro
  Gtr I
  PM
               PM    PM
               PM

-----------------------
-----------------------

-----------------------
-----------------------

-----10p7p0-10p7p0---7-
-----10p7p0-10p7p0---7-

-----------------------
-----------------------

-----------------------
-----------------------

-0-0---------------0---
-0-0---------------0---



 Gtr II

 PM
               PM    PM
               PM

-----------------------
-----------------------

-----------------------
-----------------------

------7p5p0--7p5p0-----
------7p5p0--7p5p0-----

---------------------7-
---------------------7-

-----------------------
-----------------------

-0-0---------------0---
-0-0---------------0---



  PM
               PM    PM   PM  PM

-----------------------
--------------------

-----------------------
--------------------

-----10p7p0-10p7p0---7-
---10---9---10-9----

-----------------------
-----------------10-

-----------------------
--------------------

-0-0---------------0---
-0----0---0---------



 PM
               PM    PM   PM  PM

-----------------------
--------------------

-----------------------
--------------------

------7p5p0--7p5p0-----
----7---5----7-5----

---------------------7-
------------------7-

-----------------------
--------------------

-0-0---------------0---
-0----0---0---------



  Gtr I

-----------------------
-----------------------

-----------------------
-----------------------

-----10p7p0-10p7p0---7-
-----10p7p0-10p7p0---7-

-----------------------
-----------------------

-----------------------
-----------------------

-0-0---------------0---
-0-0---------------0---



 Gtr II

-----------------------
-----------------------

-----------------------
-----------------------

-----------------------
-----------------------

------7p5p0--7p5p0-----
------7p5p0--7p5p0-----

---------------------5-
---------------------5-

-0-0---------------0---
-0-0---------------0---



-----------------------
--------------------

-----------------------
--------------------

-----10p7p0-10p7p0---7-
---10---9---10-9----

-----------------------
-----------------10-

-----------------------
--------------------

-0-0---------------0---
-0----0---0---------



-----------------------
--------------------

-----------------------
--------------------

-----------------------
--------------------

------7p5p0--7p5p0-----
----7---5----7-5----

---------------------5-
------------------5-

-0-0---------------0---
-0----0---0---------



  Gtrs I, II

----------
------------
------------
--------*

----------
------------
------------
--------*

----------
------------
------------
--------*

-0--------
-(0)--------
-(0)--------
-(0)----*

-0--------
-(0)--------
-(0)--------
-(0)----*

-0--------
-(0)--------
-(0)--------
-(0)----*





CONFINED
                          As recorded by As I Lay Dying
                   (From the 2005 Album SHADOWS ARE SECURITY)
                        Copyright (c) Metal Blade Records

Transcribed by Daniel de la Rosa (MeloDeath)

Gtr I (C G C F A D) - '1'
Gtr II (C G C F A D) - '2'
Gtr III (C G C F A D) - '3'
Gtr IV (C G C F A D) - '4'

 Intro
  Q=180
 4/4
  Gtr I
  PM----------------------------------------

---------------------
---------------------

---------------------
---------------------

---------------------
---------------------

---------------------
---------------------

---------------------
---------------------

-0-0-0-0-0-0-0-0-0-0-
-0-0-0-0-0-0-0-0-0---



 Gtr II

---------------------
-------------------

---------------------
-------------------

---------------------
-------------------

---------------------
-------------------

---------------------
-------------------

---------------------
-------------------



 ---------------------------------------------

---------------------
-----------------------

---------------------
-----------------------

---------------------
-----------------------

---------------------
-----------------------

---------------------
-----------------------

-0-0-0-0-0-0-0-0-0-0-
-0-0-0-0-0-0-0-0-0-----



 PM------------------------------------------

---------------------
-----------------------

---------------------
-----------------------

---------------------
-----------------------

---------------------
-----------------------

---------------------
-----------------------

-0-0-0-0-0-0-0-0-0-0-
-0-0-0-0-0-0-0-0-0-----



 Pre-Verse
  Gtr I

-----------------
--------------------
-----------------
-------------------

-----------------
--------------------
-----------------
-------------------

-----------------
--------------------
-----------------
-------------------

-----------------
--------------------
-----------------
-------------------

-----5---7-------
--8----10---8-7-3-5-
-----5---7-------
--8----7---8-7-3-5-

-0-0---0---0-0-0-
-----0----0---------
-0-0---0---0-0-0-
-----0---0---------



 Gtr II

-----------------
--------------------
-----------------
-------------------

-----------------
--------------------
-----------------
-------------------

-----------------
--------------------
-----------------
-------------------

-0---------------
-(0)----------------
-0---------------
-(0)---------------

-0---------------
-(0)----------------
-0---------------
-(0)---------------

-0---------------
-(0)----------------
-0---------------
-(0)---------------



                                                             Q=185
  Gtr I

-----------------
--------------------
-------------------
------------------

-----------------
--------------------
-------------------
------------------

-----------------
--------------------
-------------------
------------------

-----------------
--------------------
-------------------
------------------

-----5---7-------
--8----10---8-7-3-5-
-------5---7-------
-8----7---8-7-3-5-

-0-0---0---0-0-0-
-----0----0---------
--0--0---0---0-0-0-
----0---0---------



 Gtr II                                                     Gtr III

                                                            TP

-----------------
--------------------
-------------------
------------------

-----------------
--------------------
-------------------
------------------

-----------------
--------------------
-------------------
------------------

-0---------------
-(0)----------------
-(0)---------------
-x\---------------

-0---------------
-(0)----------------
-(0)---------------
-x\---------------

-0---------------
-(0)----------------
-(0)---------------
-x\---------------



   Verse
    Q=180
    Gtrs I, II
    PM
   PM  PM--
     PM   PM          PM
   PM  PM--
     PM  PM

------------------
------------------
-----------------
-------------------


o-----------------
------------------
-----------------
------------------o


------------------
------------------
-----------------
-------------------


------------------
------------------
-----------------
-------------------


o-----5---7-------
-8---10---8-7-3-5-
-----5---7-------
-8---7---8-7-3-5--o


--0-0---0---0-0-0-
---0----0---------
-0-0---0---0-0-0-
---0---0-----------



 Verse
  Q=172
  Gtr I
  PM
   PM  PM--
     PM   PM

-----------------
--------------------------

-----------------
--------------------------

-----------------
--------------------------

-----------------
--------------------------

-----5---7-------
-8---10---8---7---3---5---

-0-0---0---0-0-0-
---0----0-----------------



 Gtr II

 PM
       PM--
            PM----------------

-----------------
----------------------------

-----------------
----------------------------

-----------------
----------------------------

-----------------
----------------------------

-0-0-------0-0-0-
----------0-0-0-0-0-0-0-0---

-0-0-------0-0-0-
----------0-0-0-0-0-0-0-0---



  PM
   PM  PM--
     PM  PM

-----------------
--------------------------

-----------------
--------------------------

-----------------
--------------------------

-----------------
--------------------------

-----5---7-------
-8---7---8---7---3---5----

-0-0---0---0-0-0-
---0---0------------------



---
       PM--
           PM-----------------

-----------------
----------------------------

-----------------
----------------------------

-----------------
----------------------------

-----------------
----------------------------

-0-0-------0-0-0-
---------0-0-0-0-0-0-0-0----

-0-0-------0-0-0-
---------0-0-0-0-0-0-0-0----



  Gtr I
  PM
   PM  PM--
     PM   PM

-----------------
--------------------------

-----------------
--------------------------

-----------------
--------------------------

-----------------
--------------------------

-----5---7-------
-8---10---8---7---3---5---

-0-0---0---0-0-0-
---0----0-----------------



 Gtr II

 PM-------------------------------------------

-----------------
----------------------------

-----------------
----------------------------

-----------------
----------------------------

-----------------
----------------------------

-0-0-------0-0-0-
----------0-0-0-0-0-0-0-0---

-0-0-------0-0-0-
----------0-0-0-0-0-0-0-0---



  PM
   PM  PM--
       PM    PM ~~~

-----------------
--------------------

-----------------
--------------------

-----------------
--------------------

-----------------
-------------[7]----

-----5---7-------
-8-----7------------

-0-0---0---0-0-0-
-----0-----0--------



-----------------------------
  ~~~-----

-----------------
----------------------

-----------------
----------------------

-----------------
----------------------

-----------------
----------------------

-0-0-------0-0-0-
-0-0-0-0-0-0-[3]------

-0-0-------0-0-0-
-0-0-0-0-0-0----------



  Gtr I
  PM--
   PM  PM-----------------------------------
     PM   PM

---------------------
----------------------------

---------------------
----------------------------

---------------------
----------------------------

---------------------
----------------------------

-------5---7---------
-8---10---8---7---3---5-----

-0---0---0---0-0---0-
---0----0-------------------



 Gtr II

   PM
       PM  PM
            PM----------------

---------------------
----------------------------

---------------------
----------------------------

---------------------
----------------------------

---------------------
----------------------------

-0-0-0-------0-0-0-0-
----------0-0-0-0-0-0-0-0---

-0-0-0-------0-0-0-0-
----------0-0-0-0-0-0-0-0---



  PM--
   PM  PM----------------------------------
     PM  PM

---------------------
---------------------------

---------------------
---------------------------

---------------------
---------------------------

---------------------
---------------------------

-------5---7---------
-8---7---8---7---3---5-----

-0---0---0---0-0---0-
---0---0-------------------



   PM
       PM  PM
           PM----------------

---------------------
---------------------------

---------------------
---------------------------

---------------------
---------------------------

---------------------
---------------------------

-0-0-0-------0-0-0-0-
---------0-0-0-0-0-0-0-0---

-0-0-0-------0-0-0-0-
---------0-0-0-0-0-0-0-0---



  Gtr I
  PM
   PM  PM--
     PM   PM

-----------------
--------------------------

-----------------
--------------------------

-----------------
--------------------------

-----------------
--------------------------

-----5---7-------
-8---10---8---7---3---5---

-0-0---0---0-0-0-
---0----0-----------------



 Gtr II

 PM
       PM--
            PM----------------

-----------------
----------------------------

-----------------
----------------------------

-----------------
----------------------------

-----------------
----------------------------

-0-0-------0-0-0-
----------0-0-0-0-0-0-0-0---

-0-0-------0-0-0-
----------0-0-0-0-0-0-0-0---



  PM
   PM  PM--
     PM  PM

-----------------
--------------------------

-----------------
--------------------------

-----------------
--------------------------

-----------------
---------------------0----

-----5---7-------
-8---7---8---7---3---0----

-0-0---0---0-0-0-
---0---0-------------0----



---
       PM--
           PM-----------------

-----------------
----------------------------

-----------------
----------------------------

-----------------
----------------------------

-----------------
----------------------------

-0-0-------0-0-0-
---------0-0-0-0-0-0-0-0----

-0-0-------0-0-0-
---------0-0-0-0-0-0-0-0----



 Verse
  Gtr I
      PM------------
           PM-------------

-----------------------
----------------------

-----------------------
----------------------

-----------------------
----------------------

-(0)-------------------
----------------------

-(0)-0-0-0-0-0-0-0-0-8-
---7-0-0-0-0-0-0-10---

-(0)-0-0-0-0-0-0-0-0---
-0---0-0-0-0-0-0------



 Gtr II

     PM------------
           PM-------------

-----------------------
----------------------

-----------------------
----------------------

-----------------------
----------------------

-----------------------
----------------------

-(0)-0-0-0-0-0-0-0-0-8-
---7-0-0-0-0-0-0-10---

-(0)-0-0-0-0-0-0-0-0---
-0---0-0-0-0-0-0------



        PM------------------------------
     PM  PM  PM

-------------------
-------------------

-------------------
-------------------

-------------------
-------------------

-------------------
-------------------

---8-0-0-0-0-0-0-1-
---0-------0-------

-0---0-0-0-0-0-0---
-0---0-5-0---5-3---



       PM------------------------------
     PM  PM  PM

-------------------
-------------------

-------------------
-------------------

-------------------
-------------------

-------------------
-------------------

---8-0-0-0-0-0-0-1-
---0-------0-------

-0---0-0-0-0-0-0---
-0---0-5-0---5-3---



  Gtr I
                              PM----

---------------------
-------------------

---------------------
-------------------

---------------------
-------------------

---------------------
-------------------

-0-0-0-0-0-0-0-0-0-8-
---7-0-0-0-0-0-7-8-

-0-0-0-0-0-0-0-0-0---
-0---0-0-0-0-0-----



 Gtr II

                             PM----

---------------------
-------------------

---------------------
-------------------

---------------------
-------------------

---------------------
-------------------

-0-0-0-0-0-0-0-0-0-8-
---7-0-0-0-0-0-3-5-

-0-0-0-0-0-0-0-0-0---
-0---0-0-0-0-0-----



        PM----
           PM  PM

-------------------
-----------------

-------------------
-----------------

-------------------
-----------------

---7---------------
-----------------

-5---0-0-0-0-0-0-1-
---0-------0-7-8-

-----0-0-0-0-0-0---
-0---0-5-0-------



       PM----
           PM  PM

-------------------
-----------------

-------------------
-----------------

-------------------
-----------------

---3---------------
-----------------

-1---0-0-0-0-0-0-1-
---0-------0-7-8-

-----0-0-0-0-0-0---
-0---0-5-0-------



  Gtrs I, II

-----------------------
----------------------

-----------------------
----------------------

-----------------------
----------------------

-----------------------
----------------------

-0-0-0-0-0-0-0-0-0-0-8-
---7-0-0-0-0-0-0-0-10-

-0-0-0-0-0-0-0-0-0-0---
-0---0-0-0-0-0-0-0----



                        PM  PM  PM

---------------------
-------------------

---------------------
-------------------

---------------------
-------------------

---------------------
-------------------

---8-0-0-0-0-0-0-0-1-
---0-------0-------

-0---0-0-0-0-0-0-0---
-0---0-5-0---5-3---



  Gtr I

-----------------------
---------------------

-----------------------
---------------------

-----------------------
---------------------

-----------------------
---------------------

-0-0-0-0-0-0-0-0-0-0-8-
---7-0-0-0-0-0-0-7-8-

-0-0-0-0-0-0-0-0-0-0---
-0---0-0-0-0-0-0-----



 Gtr II

-----------------------
---------------------

-----------------------
---------------------

-----------------------
---------------------

-----------------------
---------------------

-0-0-0-0-0-0-0-0-0-0-8-
---7-0-0-0-0-0-0-3-5-

-0-0-0-0-0-0-0-0-0-0---
-0---0-0-0-0-0-0-----



                            PM  PM

---------------------
-------------------

---------------------
-------------------

---------------------
-------------------

---7-----------------
-------------------

-5---0-0-0-0-0-0-0-1-
---0-------0-7-8---

-----0-0-0-0-0-0-0---
-0---0-5-0---------



                           PM  PM

---------------------
-------------------

---------------------
-------------------

---------------------
-------------------

---3-----------------
-------------------

-1---0-0-0-0-0-0-0-1-
---0-------0-7-8---

-----0-0-0-0-0-0-0---
-0---0-5-0---------



 Pre-Chorus
  Gtrs I, II
  PM
   PM  PM  PM    PM    PM  PM    PM
   PM  PM  PM    PM    PM  PM

-----------------
-----------------
-----------------
-----------------

-----------------
-----------------
-----------------
-----------------

-----------------
-----------------
-----------------
-----------------

-------------7---
-5---------5---7-
-------------7---
-5---------5-----

-----5---8-------
-----5h8---------
-----5---8-------
-----5h8-------5-

-8-8---8---8---8-
---5-----5---5---
-0-0---0---0---0-
---0-----0---0---



  Gtrs I, II
  PM
   PM  PM  PM    PM    PM  PM    PM
   PM  PM  PM     PM    PM  PM

-----------------
-----------------
-----------------
------------------

-----------------
-----------------
-----------------
------------------

-----------------
-----------------
-----------------
------------------

-----0---3---7---
-5---------5---7-
-------------7---
-5----------5-----

-----------------
-----5h8---------
-----5---8-------
------5h8-------5-

-3-3---3---3---3-
---5-----5---5---
-0-0---0---0---0-
----0-----0---0---



                                                       Gtr III

                                                       TP

-----------------
-----------------
-----------------
------------------

-----------------
-----------------
-----------------
------------------

-----------------
-----------------
-----------------
------------------

-----------------
-----------------
-----------------
-x\---------------

-----------------
-----------------
-----------------
-x\---------------

-----------------
-----------------
-----------------
-x\---------------



 Chorus
  Gtrs I, II
  PM
   PM  PM  PM    PM    PM  PM    PM
   PM  PM  PM    PM    PM  PM

-----------------
-----------------
-----------------
-----------------

-----------------
-----------------
-----------------
-----------------

-----------------
-----------------
-----------------
-----------------

-------------7---
-5---------5---7-
-------------7---
-5---------5-----

-----5---8-------
-----5h8---------
-----5---8-------
-----5h8-------5-

-8-8---8---8---8-
---5-----5---5---
-0-0---0---0---0-
---0-----0---0---



  Gtrs I, II
  PM
   PM  PM  PM    PM    PM  PM    PM
   PM  PM  PM    PM    PM  PM

-----------------
-----------------
-----------------
-----------------

-----------------
-----------------
-----------------
-----------------

-----------------
-----------------
-----------------
-----------------

-----0---3---7---
-5---------5---7-
-------------7---
-5---------5-----

-----------------
-----5h8---------
-----5---8-------
-----5h8-------5-

-3-3---3---3---3-
---5-----5---5---
-0-0---0---0---0-
---0-----0---0---



 Bridge
  Gtrs I, II
  PM
   PM  PM  PM    PM    PM  PM

-----------------
-----------------

-----------------
-----------------

-----------------
-----------------

-------------7---
-5---------5-----

-----5---8-------
-----5h8-------5-

-8-8---8---8---8-
---5-----5---5---



   Verse
    Gtrs I, II
    PM
   PM  PM--
     PM   PM          PM
   PM  PM--
     PM  PM

------------------
------------------
-----------------
-------------------


o-----------------
------------------
-----------------
------------------o


------------------
------------------
-----------------
-------------------


------------------
------------------
-----------------
-------------------


o-----5---7-------
-8---10---8-7-3-5-
-----5---7-------
-8---7---8-7-3-5--o


--0-0---0---0-0-0-
---0----0---------
-0-0---0---0-0-0-
---0---0-----------



    Gtr I
    PM  PM  PM  PM
   PM    PM   PM

----------------------
------------------


o---------------------
------------------


----------------------
------------------


----------------------
------------------


o-------5---7---------
-8---10---8-7-3-5-


--0-0-0---0---0-0-0-0-
---0----0---------



   Gtr II

   PM  PM  PM  PM
   PM    PM   PM

----------------------
------------------


o---------------------
------------------


----------------------
------------------


----------------------
------------------


o-------5---7---------
-8---10---8-7-3-5-


--0-0-0---0---0-0-0-0-
---0----0---------



  PM  PM  PM  PM
   PM    PM  PM

---------------------
-------------------


---------------------
------------------o


---------------------
-------------------


---------------------
-------------------


-------5---7---------
-8---7---8-7-3-5--o


-0-0-0---0---0-0-0-0-
---0---0-----------



 PM  PM  PM  PM
   PM    PM  PM

---------------------
-------------------


---------------------
------------------o


---------------------
-------------------


---------------------
-7---5---7-5-2-3---


-------5---7---------
------------------o


-0-0-0---0---0-0-0-0-
---0---0-----------



 Pre-Chorus
  Gtrs I, II
  PM
   PM  PM  PM    PM    PM  PM    PM
   PM  PM  PM    PM    PM  PM

-----------------
-----------------
-----------------
-----------------

-----------------
-----------------
-----------------
-----------------

-----------------
-----------------
-----------------
-----------------

-------------7---
-5---------5---7-
-------------7---
-5---------5-----

-----5---8-------
-----5h8---------
-----5---8-------
-----5h8-------5-

-8-8---8---8---8-
---5-----5---5---
-0-0---0---0---0-
---0-----0---0---



  Gtrs I, II
  PM
   PM  PM  PM    PM    PM  PM    PM
   PM  PM  PM     PM    PM  PM

-----------------
-----------------
-----------------
------------------

-----------------
-----------------
-----------------
------------------

-----------------
-----------------
-----------------
------------------

-----0---3---7---
-5---------5---7-
-------------7---
-5----------5-----

-----------------
-----5h8---------
-----5---8-------
------5h8-------5-

-3-3---3---3---3-
---5-----5---5---
-0-0---0---0---0-
----0-----0---0---



 Gtr III

                                                       TP

-----------------
-----------------
-----------------
------------------

-----------------
-----------------
-----------------
------------------

-----------------
-----------------
-----------------
------------------

-----------------
-----------------
-----------------
-x\---------------

-----------------
-----------------
-----------------
-x\---------------

-----------------
-----------------
-----------------
-x\---------------



 Chorus
  Gtrs I, II
  PM
   PM  PM  PM    PM    PM  PM    PM
   PM  PM  PM    PM    PM  PM

-----------------
-----------------
-----------------
-----------------

-----------------
-----------------
-----------------
-----------------

-----------------
-----------------
-----------------
-----------------

-------------7---
-5---------5---7-
-------------7---
-5---------5-----

-----5---8-------
-----5h8---------
-----5---8-------
-----5h8-------5-

-8-8---8---8---8-
---5-----5---5---
-0-0---0---0---0-
---0-----0---0---



  Gtrs I, II
  PM
   PM  PM  PM    PM    PM  PM    PM
   PM  PM  PM    PM    PM  PM

-----------------
-----------------
-----------------
-----------------

-----------------
-----------------
-----------------
-----------------

-----------------
-----------------
-----------------
-----------------

-----0---3---7---
-5---------5---7-
-------------7---
-5---------5-----

-----------------
-----5h8---------
-----5---8-------
-----5h8-------5-

-3-3---3---3---3-
---5-----5---5---
-0-0---0---0---0-
---0-----0---0---



 Bridge
  Gtrs I, II
  PM
   PM  PM  PM    PM    PM  PM

-----------------
-----------------

-----------------
-----------------

-----------------
-----------------

-------------7---
-5---------5-----

-----5---8-------
-----5h8-------5-

-8-8---8---8---8-
---5-----5---5---



 Gtr IV

-----------------
-----------------

-----------------
-----------------

-----------------
-----------------

-8---------------
-5---------------

-8---------------
-5---------------

-8---------------
-5---------------



 Verse
  Gtrs I, II
  PM----------------------------------------

---------------------
---------------------

---------------------
---------------------

---------------------
---------------------

---------------------
---------------------

---------------------
---------------------

-0-0-0-0-0-0-0-0-0-0-
-0-0-0-0-0-0-0-0-0---



 ------------------------------------------
     PM  PM  PM

---------------------
--------------------

---------------------
--------------------

---------------------
--------------------

---------------------
--------------------

-------------------1-
---0-------0--------

-0-0-0-0-0-0-0-0-0---
-0---0-5-0---5-3----



  Gtrs I, II
  PM----------------------------------------

---------------------
---------------------

---------------------
---------------------

---------------------
---------------------

---------------------
---------------------

---------------------
---------------------

-0-0-0-0-0-0-0-0-0-0-
-0-0-0-0-0-0-0-0-0---



 ------------------------------------------
     PM  PM  PM

---------------------
--------------------

---------------------
--------------------

---------------------
--------------------

---------------------
--------------------

-------------------1-
---0-------0-7-8----

-0-0-0-0-0-0-0-0-0---
-0---0-5-0----------



 Outro
  Gtrs I, II
  PM--------------
     PM  PM---------------

---------------------
----------------------

---------------------
----------------------

---------------------
----------------------

---------------------
----------------------

-------------------8-
---7-------------10---

-0-0-0-0-0-0-0-0-0---
-0---0-0-0-0-0-0------



    PM-------------------------------------
     PM  PM  PM

---------------------
--------------------

---------------------
--------------------

---------------------
--------------------

---------------------
--------------------

---8---------------1-
---0-------0--------

-0---0-0-0-0-0-0-0---
-0---0-5-0---5-3----



  Gtr I
  PM--------------
     PM  PM------------

---------------------
-------------------

---------------------
-------------------

---------------------
-------------------

---------------------
-------------------

-------------------8-
---7---------3-5---

-0-0-0-0-0-0-0-0-0---
-0---0-0-0-0-------



 Gtr II

 PM--------------
     PM  PM------------

---------------------
-------------------

---------------------
-------------------

---------------------
-------------------

---------------------
-------------------

-------------------8-
---7---------3-5---

-0-0-0-0-0-0-0-0-0---
-0---0-0-0-0-------



    PM------------------------------------
     PM  PM  PM

---------------------
-------------------

---------------------
-------------------

---------------------
-------------------

---3-----------------
-------------------

-1-----------------1-
---0-------0---8---

-----0-0-0-0-0-0-0---
-0---0-5-0---5-----



   PM------------------------------------
     PM  PM  PM

---------------------
-------------------

---------------------
-------------------

---------------------
-------------------

---3-----------------
-------------------

-1-----------------1-
---0-------0-------

-----0-0-0-0-0-0-0---
-0---0-5-0---5-3---



  Gtrs I, II

----------
------------
------------
--------*

----------
------------
------------
--------*

----------
------------
------------
--------*

-0--------
-(0)--------
-(0)--------
-(0)----*

-0--------
-(0)--------
-(0)--------
-(0)----*

-0--------
-(0)--------
-(0)--------
-(0)----*




Losing sight

Tuning: CGCFAD

D----------------------------------------------

A----------------------------------------------

F----------------------------------------------

C-000-000-000---------000-000-----------7------

G-000-000-000---5-8---000-000---0-5-0-----7----

C-000-000-000---------000-000------------------

  ... ... ...         ... ...

D----------------------------------------------

A----------------------------------------------

F----------------------------------------------

C-000-000-000---------000-------000---2--------

G-000-000-000---5-8---000---3---000-0----------

C-000-000-000---------000-3-----000------------

  ... ... ...         ...       ...

D-----------------------------------------------

A-----------------------------------------------

F-----------------------------------------------

C-0---0-000-000---------7-7-5---7-5-------------

G-0---0-000-000---5-8---------------8-7-8-7-5-3-

C-0---0-000-000---------------------------------

      . ... ...

D----------------------------------------------

A----------------------------------------------

F----------------------------------------------

C-0---000-000---------7-7-5---10-8-7-5-8-7-5---

G-0---000-000---5-8--------------------------8-

C-0---000-000----------------------------------

      ... ...

D----------------------------------------------

A----------------------------------------------

F----------------------------------------------

C-0-000000-------------------------------------

G-0-000000---8----7----------------------------

C-0-000000-----00---0-10-00--------------------

    ......     ..   .    ..

D----------------------------------------------

A----------------------------------------------

F----------------------------------------------

C-0-000000-----------7---10--------------------

G-0-000000---5p0-5/8---7----7------------------

C-0-000000-------------------------------------

    ......

D----------------------------------------------

A----------------------------------------------

F----------------------------------------------

C-0-000000-------------------------------------

G-0-000000---8----7----------------------------

C-0-000000-----00---0-10-00--------------------

    ......     ..   .    ..

D----------------------------------------------

A----------------------------------------------

F----------------------------------------------

C-0-000000---7777-10101010---------------------

G-0-000000---7777-10101010---------------------

C-0-000000-------------------------------------

    ......


D----------------------------------------------

A----------------------------------------------

F----------------------------------------------

C-000-000-000---------000-000-----------7------

G-000-000-000---5-8---000-000---0-5-0-----7----

C-000-000-000---------000-000------------------

  ... ... ...         ... ...

D----------------------------------------------

A----------------------------------------------

F-----------------------------7---10-----------

C-000-000-000---------7---------7----7---------

G-000-000-000---5-8-----8-7-8------------------

C-000-000-000----------------------------------

  ... ... ...         . . . .

D----------------------------------------------

A----------------------------------------------

F----------------------------------------------

C-000-000-000---------000-000-----------7------

G-000-000-000---5-8---000-000---0-5-0-----7----

C-000-000-000---------000-000------------------

  ... ... ...         ... ...

D----------------------------------------------

A----------------------------------------------

F----------------------------------------------

C-000-000-000---------0-0-000-000-------7------

G-000-000-000---5-8---0-0-000-000-0-5-7--------

C-000-000-000---------0-0-000-000--------------

  ... ... ...         . . ... ...



As I Lay Dying
"The Darkest Nights"


Tuning: Drop C (CGCFAD)

= - let ring
. - palm mute
x - mute w/ fret hand

INTRO (x2)
Both Guitars

-----------------------------------------------

-----------------------------------------------

-----------------------------------------------
 x3

-12-0----15-0-14-0-12-0-12----12-15-0-14-0-----

------15-------------------15------------------

-----------------------------------------------


-----------------------------------------------

-----------------------------------------------

---------------------------------17------------

-12-0----15-0-14-0-12-0-15-14-15----15-14------

------15----------------------------------15---

-----------------------------------------------



BRIDGE TO VERSE
 Guitar I

-----------------------------------------------------------------

-----------------------------------------------------------------

-----------------------------------------------------------------

-------------------3---3-2-------------------------7---7-5-------

---5-----8---5---------------3-----5-----8---5---------------7---

-0---0-0---0---0-5---5-----5---5-0---0-0---0---0-8---8-----8-----

 .   . .   .   . .   .     .   . .   . .   .   . .   .     .

Guitar II

-----------------------------------------------------------------

-----------------------------------------------------------------

-----------------------------------------------------------------

-0========================--0--0-0---------------8----10--7------

-0========================--0--0-0---------------8----10--7------

-0========================--0--0-0---------------8----10--7------

                             .  . .

VERSE PART 1 (x2)
 Guitar I

------------------------------------------------------------------

------------------------------------------------------------------

------------------------------------------------------------------

-------------------3---3-2-------------------------7---7-5---5----

---5-----8---5---------------3-----5-----8---5--------------------

-0---0-0---0---0-5---5-----5---5-0---0-0---0---0-8---8-----8---8--

 .   . .   .   . .   .     .   . .   . .   .   . .   .     .   .

Guitar II

------------------------------------------------------------------

------------------------------------------------------------------

------------------------------------------------------------------

-------------------3---3-2-------------------------3---3-2--------

---5-----8---5---------------3-----5-----8---5---------------3----

-0---0-0---0---0-5---5-----5---5-0---0-0---0---0-5---5-----5---5--

  .   . .   .   . .   .     .   . .   . .   .   . .   .     .   .

 Guitar I

------------------------------------------------------------------

------------------------------------------------------------------

------------------------------------------------------------------

-------------------3---3-2-------------------------7---7-5---5----

---5-----8---5---------------3-----5-----8---5--------------------

-0---0-0---0---0-5---5-----5---5-0---0-0---0---0-8---8-----8---8--

 .   . .   .   . .   .     .   . .   . .   .   . .   .     .   .

Guitar II

------------------------------------------------------------------

------------------------------------------------------------------

------------------------------------------------------------------

-------------------3---3-2---------------0------------------------

---5-----8---5---------------3---1-1-1-1---1-1-1-3-3-3-3-1-1-0-0--

-0---0-0---0---0-5---5-----5---5----------------------------------

  .   . .   .   . .   .     .   . .   . .   .   . .   .     .   .


VERSE PART 2
Both Guitars

---------------------------------------------------------------

---------------------------------------------------------------

----------------------------------------------3----0-----------

-0----3---2-----3----3---2-----5----3---2-----3--------3---2---

-0------------3-3------------3-5------------3-1--1---1---1-----

-0--0---0---0---3--3---3---3---5--5---5---5--------------------

     .   .   .      .   .   .      .   .   .      .   .   .

 Guitar I

---------------------------------------------------------------

---------------------------------------------------------------

----------------------------------------------3----0-----------

-0----3---2-----3----3---2-----5----3---2-----3--------3---2---

-0------------3-3------------3-5------------3-1--1---1---1-----

-0--0---0---0---3--3---3---3---5--5---5---5--------------------

    .   .   .      .   .   .      .   .   .      .   .   .

Guitar II

---------------------------------------------------------------

---------------------------------------------------------------

---------------------------------------------------------------

-0----7---5---3-3----7---5---3-5----7---5---3-8----5---7---5---

-0--------------3--------------5--------------8----------------

-0--0---0---0---3--3---3---3---5--5---5---5---8--8---8---8-----

     .   .   .      .   .   .      .   .   .      .   .   .

Both Guitars

------------------------------------------------------------------

------------------------------------------------------------------

------------------------------------------------------------------

---------------------------------------------7--------------------

------8--7---------8--7---------10--8-7-8-10---10-8--7h8p7--------

-0--0------10-7--7------10-8--8-----------------------------------


Guitar I

------------------------------------------------------------------

------------------------------------------------------------------

------------------------------------------------------------------

---------------------------------------------7--------------------
 x2

------8--7---------8--7---------10--8-7-8-10---10-8--7h8p7--------

-0--0------10-7--7------10-8--8-----------------------------------

Guitar II

--------------------------------------------------------------------------

--------------------------------------------------------------------------

-7------------9------------10-----------12--------------------------------

-x------------x------------x------------x---------------------------------

-5------------7------------8------------10--------------------------------

--------------------------------------------------------------------------


Guitar I cont... (just repeat)

------------------------------------------------------------------

------------------------------------------------------------------

------------------------------------------------------------------

---------------------------------------------7--------------------
 x2

------8--7---------8--7---------10--8-7-8-10---10-8--7h8p7--------

-0--0------10-7--7------10-8--8-----------------------------------


Guitar II cont...

--------------------------------------------------------------------------

--------------------------------------------------------------------------

-10-----------12-----------14-----------1412--12--------------------------

-x------------x------------x----------------15--151412--------------------

-8------------10-----------12---------------------------------------------

--------------------------------------------------------------------------



CHORUS (x2) (It's the same as the intro...)
Both Guitars

-----------------------------------------------

-----------------------------------------------

-----------------------------------------------
 x3

-12-0----15-0-14-0-12-0-12----12-15-0-14-0-----

------15-------------------15------------------

-----------------------------------------------


-----------------------------------------------

-----------------------------------------------

---------------------------------17------------

-12-0----15-0-14-0-12-0-15-14-15----15-14------

------15----------------------------------15---

-----------------------------------------------



Repeat VERSE PARTS 1+2


CHORUS 2 (with harmony) Repeat until fade out
 Guitar I

-----------------------------------------------

-----------------------------------------------

-----------------------------------------------
 x3

-12-0----15-0-14-0-12-0-12----12-15-0-14-0-----

------15-------------------15------------------

-----------------------------------------------

Guitar II

-----------------------------------------------

-----------------------------------------------

-----------------------------------------------
 x3

-15-0----19-0-17-0-15-0-15----15-19-0-17-0-----

------19-------------------19------------------

-----------------------------------------------


 Guitar I

-----------------------------------------------

-----------------------------------------------

-----------------------------------------------

-12-0----15-0-14-0-12-0-12----12-15-15-12------

------15-------------------15-------------15---

-----------------------------------------------

Guitar II

-----------------------------------------------

-----------------------------------------------

---------------------------------17------------

-15-0----19-0-17-0-15-0-15-14-15----15-14------

------19----------------------------------15---

-----------------------------------------------







As I Lay Dying
Empty Hearts (Track 5)
Shadows Are Security

Guitar 1 - Nick Hipa
Guitar 2 - Phil Sgrosso

Tuning: Drop C - From Low to High (CGCFAD)

Intro (00.00 - 00.15)
Guitars 1 & 2
X3	                                 ...After, play this once.

--------------------------------------
 
---------------------------------

--------------------------------------
 
---------------------------------

--------------------------------------
 
---------------------------------

--------------------------------------
 
---------------------------------

-6h9p6---5h8p5----6h9p6----5h8p5------
 
-6h9p6---5h8p5---6h9p6--5h8p5----

-------0-------0--------0--------0-0--
 
-------0-------0-------0------0--

        .       .        .        . .            .       .       .      .


Riff 1 (00.15 - 00.31)
Guitars 1 & 2

----------------------------------------------------------------

----------------------------------------------------------------

----------------------------------------------------------------

-0000--0000---00--0000--0000---00--0000--0000---00--0000--0000--

-0000--0000---00--0000--0000---00--0000--0000---00--0000--0000--

-0000--0000---00--0000--0000---00--0000--0000---00--0000--0000--

  ....  ....   ..  ....  ....   ..  ....  ....   ..  ....  ....

         (N.H)                        (N.H)

----------------------------------------------------------------

----------------------------------------------------------------

----------------------------------------------------------------

-00-000-(3b)-0000-00-0000-0000-00-000-(3b)-0000-00-0000-0000-00-

-00-000-(3b)-0000-00-0000-0000-00-000-(3b)-0000-00-0000-0000-00-

-00-000-(3b)-0000-00-0000-0000-00-000-(3b)-0000-00-0000-0000-00-

  .. ...      .... .. .... .... .. ...      .... .. .... .... ..


Pre-Verse Riff (00.31 - 00.40)
Guitar 1

-------------------------------------
--------------------------------

-------------------------------------
--------------------------------

-------------------------------------
--------------------------------

-------------------------------------
--------------------------------

6h9----5h8----6h9----5h8p5-----------
6h9---5h8---6h9---5h8p5---------

----0-------0------0--------00000000-
----0-----0-----0-------00000000

     .       .      .        ........       .     .     .       ........

Guitar 2

-------------------------------------
--------------------------------

-------------------------------------
--------------------------------

-------------------------------------
--------------------------------

-0~~~~~~~~~~~~~~~~~~~~~~~~~----------
--------------------------------

-0~~~~~~~~~~~~~~~~~~~~~~~~~----------
--------------------------------

-0~~~~~~~~~~~~~~~~~~~~~~~~~-00000000-
------------------------00000000

                             ........                           ........

Continued...
Guitar 1

-------------------------------------
--------------------------------

-------------------------------------
--------------------------------

-------------------------------------
--------------------------------

-------------------------------------
--------------------------------

6h9----5h8----6h9----5h8p5-----------
6h9---5h8---6h9---5h8p5---------

----0-------0------0--------00000000-
----0-----0-----0-------X///////

     .       .      .        ........       .     .     .

Guitar 2

-------------------------------------
--------------------------------

-------------------------------------
--------------------------------

-------------------------------------
--------------------------------

-0~~~~~~~~~~~~~~~~~~~~~~~~~----------
--------------------------------

-0~~~~~~~~~~~~~~~~~~~~~~~~~----------
--------------------------------

-0~~~~~~~~~~~~~~~~~~~~~~~~~-00000000-
------------------------00000000

                             ........                           ........


Verse (00.40 - 1.02)
Guitars 1 & 2

--------------------------------------------------------------

--------------------------------------------------------------

--------------------------------------------------------------

--------------------------------------------------------------

-5---------------5----------5------------------5----------65--

---0-0-0-000-000---00-6-0-3---0--0-0-0-000-000---00-6-0-3-----
 <
    . . . ... ...   ..   .        . . . ... ...   ..   .          

                                                                 Repeat 2X
Continued...                                                         

Guitars 1 & 2                                                     

--------------------------------------------------------------
 <

--------------------------------------------------------------

--------------------------------------------------------------

---------------8----7-----------------------------------------

------------------------8---65----------------6-----5---------

-0-0-0-000-000---00---0---0----0-0-0-000-000----00----8-7-5---

  . . . ... ...   ..   .   .    . . . ... ...    ..


Riff 2 (1.02 - 1.06)
Guitar 1

--------------------------------------------------------------

--------------------------------------------------------------

--------------------------------------------------------------

--------------------------------------------------------------

-9p6-------------9p6---8p5---56--9p6---------------59-8-5-----

-----0-0-000-000-----0-----0----------0-0-000-000---------6---

      . . ... ...     .     .          . . ... ...

Guitar 2

--------------------------------------------------------------

--------------------------------------------------------------

--------------------------------------------------------------

-00------------------------------00---------------------------

-00------------------------------00----------------59-8-5-----

-00------------------------------00-----------------------6---

  ..                              ..

Riff 2 Continued (1.06 - 1.28)
Guitars 1 & 2

--------------------------------------------------------------

--------------------------------------------------------------

--------------------------------------------------------------

--------------------------------------------------------------

-9p6-------------9p6---8p5---56--9p6---------------59-8-5-----

-----0-0-000-000-----0-----0----------0-0-000-000---------6---

      . . ... ...     .     .          . . ... ...


Repeat Verse (1.28 - 1.49)


Solo (1.49 - 2.10 )
*Note - Couldn't have done tabbed this solo without "imxron"'s Tab.
             Nice Job Figuring this thing out.
Guitar 1

---------------------------------------------------------------------

---------------------------------------------------------------------

-12-11-12---14-12-11---12-11-12--15-13-12--12-11-12--14-13-12--------

---------------------------------------------------------------12^---

---------------------------------------------------------------------

---------------------------------------------------------------------



--11-8-11---14-11-8---11-8-11---14-11-8---11-10-8---10-8-------------

----------------------------------------------------------11-10^-----

---------------------------------------------------------------------

---------------------------------------------------------------------

---------------------------------------------------------------------

---------------------------------------------------------------------


-----------------------------------10------8--------------

--8-------10-------11------10----------------------11-----

-----7-8------7-8------7-8-----7-8----8-7-----8-7---------

----------------------------------------------------------

----------------------------------------------------------

----------------------------------------------------------


                                                  (A.H)

----------------------------------------------------------

----------------------------------------------------------

----------------------------------------------------------

--8-7-5-------------------------------------------(8b)----

---------8-7-5---5-7-10---10-7-5---8-7-5--8-7-5-----------

----------------------------------------------------------


------------------------------------

-8^--7-8-10^--8-10-11^--10-11-13^---

------------------------------------

------------------------------------

------------------------------------

------------------------------------


--------------------------------------------------------15-14~~

-13p11p10--------------------------------------16-15-13--------

--------------------------------------15-14-12-----------------

-----------13-12-10----------12-14-15--------------------------

--------------------10-12-13-----------------------------------

---------------------------------------------------------------


-20-20-20-18-18-18-17-17-17-18-18-18-17-17-17-15-15-15-14-14-14----------

----------------------------------------------------------------16-16-16-

-------------------------------------------------------------------------

-------------------------------------------------------------------------

-------------------------------------------------------------------------

-------------------------------------------------------------------------

  TP TP TP TP TP TP TP TP TP TP TP TP TP TP TP TP TP TP TP TP TP TP TP TP


---14p11p10----11p10p8----10p8p6----8p6p5------2~/10~~~~~~~~~~~~~~~~~~~--

-------------------------------------------------------------------------

-------------------------------------------------------------------------

-------------------------------------------------------------------------

-------------------------------------------------------------------------

-------------------------------------------------------------------------


Rhythm (1.49 - 2.10)
(During Solo)

--------------------------------------------------------------

--------------------------------------------------------------

--------------------------------------------------------------

--------------------------------------------------------------

-5---------------5----------5------------------5----------65--

---0-0-0-000-000---00-6-0-3---0--0-0-0-000-000---00-6-0-3-----

    . . . ... ...   ..   .        . . . ... ...   ..   .


--------------------------------------------------------------

--------------------------------------------------------------

--------------------------------------------------------------

---------------8----7-----------------------------------------

------------------------8---65----------------6-----5---------

-0-0-0-000-000---00---0---0----0-0-0-000-000----00----8-7-5---

  . . . ... ...   ..   .   .    . . . ... ...    ..


------------------------------------------------------------------

------------------------------------------------------------------

------------------------------------------------------------------

------------------------------------------------------------------

-/9---------------9-----------9------------------9-----------10-7-

----0-0-0-000-000---00-10-0-7---0--0-0-0-000-000---00-10-0-7------

     . . . ... ...   ..    .        . . . ... ...   ..    .


------------------------------------------------------------------

------------------------------------------------------------------

------------------------------------------------------------------

---------------12----11-------------------------------------------

--------------------------12---10-9---------------10-----9--------

-0-0-0-000-000----00----0----0------0-0-0-000-000----00----10-9-7-

  . . . ... ...    ..    .    .      . . . ... ...    ..


Riff 3 (2.10 - 2.22)
Guitar 1

--------------------------------------------------------------------------

--------------------------------------------------------------------------

--------------------------------------------------------------------------

--------------------------------------------------------------------------

-9p6----5----9----8----5----9p6-56--9p6-----5-----9------8-----5---6-9-5~~

-----0----0----0----0----00--------------0-----0-----0-----0----00--------

      .    .    .    .    ..              .     .     .     .    ..

Guitar 2

------------------------------------------------------------------------

------------------------------------------------------------------------

------------------------------------------------------------------------

------------------------------------------------------------------------

------------------------------------------------------------------------

-00000-----------------------------00000--------------------------------

  .....                             .....

Feedback

------------------------------------------------------------------------

------------------------------------------------------------------------

------------------------------------------------------------------------

--~~~~~~~~~~~~~~~~~~~~~~~~~~~~~~~~~~~~~~~~~~~~~~~~~~~~~~~~~~~~~~~~~~~---

--~~~~~~~~~~~~~~~~~~~~~~~~~~~~~~~~~~~~~~~~~~~~~~~~~~~~~~~~~~~~~~~~~~~---

--~~~~~~~~~~~~~~~~~~~~~~~~~~~~~~~~~~~~~~~~~~~~~~~~~~~~~~~~~~~~~~~~~~~---



Continued...
Guitar 1                                                              (A.H)

--------------------------------------------------------------------------

--------------------------------------------------------------------------

--------------------------------------------------------------------------

--------------------------------------------------------------------------

-9p6----5----9----8----5----9p6-56--9p6-----5-----9-----8-----5---6-9-(8b)

-----0----0----0----0----00--------------0-----0-----0----0----00---------

      .    .    .    .    ..              .     .     .    .    ..

Guitar 2

------------------------------------------------------------------------

------------------------------------------------------------------------

------------------------------------------------------------------------

------------------------------------------------------------------------

------------------------------------------------------------------------

-00000-----------------------------00000--------------------------------

  .....                             .....

Feedback

------------------------------------------------------------------------

------------------------------------------------------------------------

------------------------------------------------------------------------

--~~~~~~~~~~~~~~~~~~~~~~~~~~~~~~~~~~~~~~~~~~~~~~~~~~~~~~~~~~~~~~~~~~~---

--~~~~~~~~~~~~~~~~~~~~~~~~~~~~~~~~~~~~~~~~~~~~~~~~~~~~~~~~~~~~~~~~~~~---

--~~~~~~~~~~~~~~~~~~~~~~~~~~~~~~~~~~~~~~~~~~~~~~~~~~~~~~~~~~~~~~~~~~~---



Outro (2.22 - 2.48)
Guitar 1 & 2
X2

--------------------------------------------------------------------------

--------------------------------------------------------------------------

--------------------------------------------------------------------------

--------------------------------------------------------------------------

-9p6----5----9----8----5----9p6-56--9p6-----5-----9------8-----5---6-9-5~~

-----0----0----0----0----00--------------0-----0-----0-----0----00--------

      .    .    .    .    ..              .     .     .     .    ..

                                                                    (A.H)

--------------------------------------------------------------------------

--------------------------------------------------------------------------

--------------------------------------------------------------------------

--------------------------------------------------------------------------

-9p6----5----9----8----5----9p6-56--9p6-----5-----9-----8-----5---6-9-(8b)

-----0----0----0----0----00--------------0-----0-----0----0----00---------

      .    .    .    .    ..              .     .     .    .    ..

End With
Guitars 1 & 2

------------

------------

------------

------------

------------

---00000----





Reflection



Intro

Each note is picked a loads with alternate picking
d
------------------------------------------------------

A
------------------------------------------------------

F
------------------------------------------------------

C
------------------------------------------------------
 X 2
G
--8--10--7--5--10--8--7--5--8--10--7--5--12--10--8--7-

C
------------------------------------------------------

pm


Verse

d
-----------------------------------------------------------------
	}
A
-----------------------------------------------------------------
	}
F
-----------------------------------------------------------------
	}
C
------------------7---------------8------------------------------
	}
G
--8p5---------8p5---8-5-------8p5---8-5-------8p5---5----5----5--
	}
C
------000-000-----------0-000-----------0-000-----5---53---32----
	}
pm      ... ...           . ...           . ...     .   ..   ..		}
									}	X 3
d
-----------------------------------------------------------------
	}
A
-----------------------------------------------------------------
	}
F
-----------------------------------------------------------------
	}
C
------------------7---------------8------------------------------
	}
G
--8p5---------8p5---8-5-------8p5---8-5-------8p5---8----3---2h3-
	}
C
------000-000-----------0-000-----------0-000-----5---53---3-----
	}
pm      ... ...           . ...           . ...     .   ..   .		}


Chorus

d
------------------------------------------------------------------
	}
A
------------------------------------------------------------------
	}
F
------------------------------------------------------------------
	}
C
------------------------------------------------------------------
	}
G
--8----8----10---7---7---5---5---10----10----8---7---7---5---5----
	}
C
----00---00----0---0---0---0---0----00----00---0---0---0---0---0--
	}
pm    ..   ..    .   .   .   .   .    ..    ..   .   .   .   .   .	}
									}	X 2
d
------------------------------------------------------------------
	}
A
------------------------------------------------------------------
	}
F
------------------------------------------------------------------
	}
C
------------------------------------------------------------------
	}
G
--8----8----10---7---7---5---5---12----12----10---8---8---7---7---
	}
C
----00---00----0---0---0---0---0----00----00----0---0---0---0---0-
	}
pm    ..   ..    .   .   .   .   .    ..    ..    .   .   .   .   .	}

then one guitar plays chorus twice again while the other plays:

d
------------------------------------------------------------------

A
------------------------------------------------------------------

F
------------------------------------------------------------------

C
--7----7----5---3---3---2---2---8----8----7---5---5---3---3-------
	X 4
G
------------------------------------------------------------------

C
----00---00---0---0---0---0---0---00---00---0---0---0---0---0-----

pm    ..   ..   .   .   .   .   .   ..   ..   .   .   .   .   .


Verse again


Bridge
I love this part!
Nick plays:
d
-------------------

A
-------------------

F
-------------------

C
-------------------

G
-------------------

C
--000-000-000-000--

pm  ... ... ... ...

then Phil plays:
d
-------------------

A
-------------------

F
-------------------

C
-------------------

G
-------------------

C
--000-000-000-000--

pm  ... ... ... ...

then kicks in with Nick playing:
d
------------------------------------------------------------------

A
------------------------------------------------------------------

F
------------------------------------------------------------------

C
------------------------------------------------------------------
	X 4
G
------------------------------------------------------------------

C
--000-000-000-0-0-000-000-000-0-0-000-000-000-0-0-000-000-000-0-0-

pm  ... ... ... . . ... ... ... . . ... ... ... . . ... ... ... . .

While phil plays:
d
-----------------------------------------------------------------

A
-----------------------------------------------------------------

F
-----------------------------------------------------------------

C
-----------------------------------------------------------------

G
----------------------------------------------------5----5----5--

C
--000-000-000-0-0-000-000-000-0-0-000-000-000-0-0-5---53---32----

pm  ... ... ... . . ... ... ... . . ... ... ... . . .   ..   ..
									X 2
d
-----------------------------------------------------------------

A
-----------------------------------------------------------------

F
-----------------------------------------------------------------

C
---------------------------------------------------------3---2h3-

G
----------------------------------------------------8------------

C
--000-000-000-0-0-000-000-000-0-0-000-000-000-0-0-5---53---3-----

pm  ... ... ... . . ... ... ... . . ... ... ... . . .   ..   .

Then Verse, then Chorus to end on

d
-----------------------------------------------------------------

A
-----------------------------------------------------------------

F
-----------------------------------------------------------------

C
---------------------------------------------------------3---2h3-

G
----------------------------------------------------8------------

C
--000-000-000-0-0-000-000-000-0-0-000-000-000-0-0-5---53---3-----

pm  ... ... ... . . ... ... ... . . ... ... ... . . .   ..   .

d
-----

A
-----

F
--10-

C
--10-

G
--8--

C
-----

pm




artist: as i lay dying
song: repeating yesterday
album: shadows are...
tunning: dropped c (cgcfad)

ok here___________________________________________
GTR 1 (CLEAN)

--------------------------------------------------------------------------

-----3-----3-----3-----3-----3-----3-----3-----3-----3-----3-----3-----3--

--------------------------------------------------------------------------

---0-----0-----0-----0-----0-----0-----0-----0-----0-----0-----0-----0----

-0-----0-----0-----0-----0-----0-----3-----3-----3-----3-----3-----3------

--------------------------------------------------------------------------


GTR 2

--------------------------------------------------------------------------

--------------------------------------------------------------------------

--------------------------------------------------------------------------

--------------------------------------------------------------------------

--------------------------------------------------------------------------

--------------------------------------------------------------------------


GTR 1

------------------------------------

----3-----3-----3-----3-----3-----3-

------------------------------------

--0-----0-----0-----0-----0-----0---

1-----1-----1-----1-----1-----1-----

------------------------------------


GTR 2

------------------------------------

------------------------------------

------------------------------------

------------------------------------

------------------------------------

------------------------------------


GTR 1

--------------------------------------------------------------------------

-----3-----3-----3-----3-----3-----3-----3-----3-----3-----3-----3-----3--

--------------------------------------------------------------------------

---0-----0-----0-----0-----0-----0-----0-----0-----0-----0-----0-----0----

-0-----0-----0-----0-----0-----0-----3-----3-----3-----3-----3-----3------

--------------------------------------------------------------------------


GTR 2

--------------------------------------------------------------------------

--------------------------------------------------------------------------

--------------------------------------------------------------------------

--------------------------------------------------------------------------

--------------------------------------------------------------------------

--------------------------------------------------------------------------


GTR 1

------------------------------------

----3-----3-----3-----3-----3-----3-

------------------------------------

--0-----0-----0-----0-----0-----0---

1-----1-----1-----1-----1-----1-----

------------------------------------


GTR 2

------------------------------------

------------------------------------

------------------------------------

------------------------------------

------------------------------------

------------------------------------


GTR 1

--------------------------------------------------------------------------

-----3-----3-----3-----3-----3-----3-----3-----3-----3-----3-----3-----3--

--------------------------------------------------------------------------

---0-----0-----0-----0-----0-----0-----0-----0-----0-----0-----0-----0----

-0-----0-----0-----0-----0-----0-----3-----3-----3-----3-----3-----3------

--------------------------------------------------------------------------


GTR 2

-----------------------------------------------

-----------------------------------------------

-----12------12------12------12------12-----12-

---0-------0-------0-------0-------0------0----
 (GTR 2 REPEATS THIS OVER N

10------10------10------10------10------0------
   OVER WHILE GTR ONE PLAYS)

-----------------------------------------------


GTR 1

------------------------------------

----3-----3-----3-----3-----3-----3-

------------------------------------

--0-----0-----0-----0-----0-----0---

1-----1-----1-----1-----1-----1-----

------------------------------------


 =========GTR 2 REPEATS

GTR 1

--------------------------------------------------------------------------

-----3-----3-----3-----3-----3-----3-----3-----3-----3-----3-----3-----3--

--------------------------------------------------------------------------

---0-----0-----0-----0-----0-----0-----0-----0-----0-----0-----0-----0----

-0-----0-----0-----0-----0-----0-----3-----3-----3-----3-----3-----3------

--------------------------------------------------------------------------


 =========GTR 2 REPEATS

GTR 1

------------------------------------

----3-----3-----3-----3-----3-----3-

------------------------------------

--0-----0-----0-----0-----0-----0---

1-----1-----1-----1-----1-----1-----

------------------------------------


 =========GTR 2 REPEATS

GTR 1

--------------------------------------------------------------------------

-----3-----3-----3-----3-----3-----3-----3-----3-----3-----3-----3-----3--

--------------------------------------------------------------------------

---0-----0-----0-----0-----0-----0-----0-----0-----0-----0-----0-----0----

-0-----0-----0-----0-----0-----0-----3-----3-----3-----3-----3-----3------

--------------------------------------------------------------------------


GTR 1

------------------------------------

----3-----3-----3-----3-----3-----3-

------------------------------------

--0-----0-----0-----0-----0-----0---

1-----1-----1-----1-----1-----1-----

------------------------------------


 =========GTR 2 REPEATS

GTR 1

--------------------------------------------------------------------------

-----3-----3-----3-----3-----3-----3-----3-----3-----3-----3-----3-----3--

--------------------------------------------------------------------------

---0-----0-----0-----0-----0-----0-----0-----0-----0-----0-----0-----0----

-0-----0-----0-----0-----0-----0-----3-----3-----3-----3-----3-----3------

--------------------------------------------------------------------------


 =========GTR 2 REPEATS

GTR 1

------------------------------------

----3-----3-----3-----3-----3-----3-

------------------------------------

--0-----0-----0-----0-----0-----0---

1-----1-----1-----1-----1-----1-----

------------------------------------


 ==========GTR 2 REPEATS
THEN__________________________________________________________

GTR 1 & 2

-------------------------------------------------------------------

-------------------------------------------------------------------

-1212121212121212--10101010--9999--1010101010101010--9999--5555----

--X-X-X-X-X-X-X-X---X-X-X-X--XXXX---X-X-X-X-X-X-X-X--XXXX--XXXX----

-1010101010101010---8-8-8-8--7777---8-8-8-8-8-8-8-8--7777--3333----

-------------------------------------------------------------------


GTR 1 & 2

-------------------------------------------------------------------

-------------------------------------------------------------------

-1212121212121212--10101010--9999--1010101010101010--9999--5555----

--X-X-X-X-X-X-X-X---X-X-X-X--XXXX---X-X-X-X-X-X-X-X--XXXX--XXXX----

-1010101010101010---8-8-8-8--7777---8-8-8-8-8-8-8-8--7777--3333----

-------------------------------------------------------------------


GTR 1 & 2

-------------------------------------------------------------------

-------------------------------------------------------------------

-1212121212121212--10101010--9999--1010101010101010--9999--5555----

--X-X-X-X-X-X-X-X---X-X-X-X--XXXX---X-X-X-X-X-X-X-X--XXXX--XXXX----

-1010101010101010---8-8-8-8--7777---8-8-8-8-8-8-8-8--7777--3333----

-------------------------------------------------------------------

_______________________________________________________
GTR 1 & 2

---------------------------------------------------------------------------

---------------------------------------------------------------------------

--1515151515151515--14141414--10101010--1414141414141414--1212121212121212-

---X-X-X-X-X-X-X-X---X-X-X-X---X-X-X-X---X-X-X-X-X-X-X-X---X-X-X-X-X-X-X-X-

--1313131313131313--12121212---8-8-8-8--1212121212121212--1010101010101010-

---------------------------------------------------------------------------


GTR 1 & 2

---------------------------------------------------------------------------

---------------------------------------------------------------------------

--1515151515151515--14141414--10101010--1414141414141414--1212121212121212-

---X-X-X-X-X-X-X-X---X-X-X-X---X-X-X-X---X-X-X-X-X-X-X-X---X-X-X-X-X-X-X-X-

--1313131313131313--12121212---8-8-8-8--1212121212121212--1010101010101010-

---------------------------------------------------------------------------


GTR 1 & 2

---------------------------------------------------------------------------

---------------------------------------------------------------------------

--1515151515151515--14141414--10101010--1414141414141414--1212121212121212-

---X-X-X-X-X-X-X-X---X-X-X-X---X-X-X-X---X-X-X-X-X-X-X-X---X-X-X-X-X-X-X-X-

--1313131313131313--12121212---8-8-8-8--1212121212121212--1010101010101010-

---------------------------------------------------------------------------

_________________________________________________________________________
GTR 1 & 2

-------------------------------------------------------------------

-------------------------------------------------------------------

-1212121212121212--10101010--9999--1010101010101010--9999--5555----

--X-X-X-X-X-X-X-X---X-X-X-X--XXXX---X-X-X-X-X-X-X-X--XXXX--XXXX----

-1010101010101010---8-8-8-8--7777---8-8-8-8-8-8-8-8--7777--3333----

-------------------------------------------------------------------


GTR 1 & 2

-------------------------------------------------------------------

-------------------------------------------------------------------

-1212121212121212--10101010--9999--1010101010101010--9999--5555----

--X-X-X-X-X-X-X-X---X-X-X-X--XXXX---X-X-X-X-X-X-X-X--XXXX--XXXX----

-1010101010101010---8-8-8-8--7777---8-8-8-8-8-8-8-8--7777--3333----

-------------------------------------------------------------------


GTR 1 & 2

-------------------------------------------------------------------

-------------------------------------------------------------------

-1212121212121212--10101010--9999--1010101010101010--9999--5555----

--X-X-X-X-X-X-X-X---X-X-X-X--XXXX---X-X-X-X-X-X-X-X--XXXX--XXXX----

-1010101010101010---8-8-8-8--7777---8-8-8-8-8-8-8-8--7777--3333----

-------------------------------------------------------------------

_______________________________________________________________________
GTR 1 & 2

---------------------------------------------------------------------------

---------------------------------------------------------------------------

--1515151515151515--14141414--10101010--1414141414141414--1212121212121212-

---X-X-X-X-X-X-X-X---X-X-X-X---X-X-X-X---X-X-X-X-X-X-X-X---X-X-X-X-X-X-X-X-

--1313131313131313--12121212---8-8-8-8--1212121212121212--1010101010101010-

---------------------------------------------------------------------------


GTR 1 & 2

---------------------------------------------------------------------------

---------------------------------------------------------------------------

--1515151515151515--14141414--10101010--1414141414141414--1212121212121212-

---X-X-X-X-X-X-X-X---X-X-X-X---X-X-X-X---X-X-X-X-X-X-X-X---X-X-X-X-X-X-X-X-

--1313131313131313--12121212---8-8-8-8--1212121212121212--1010101010101010-

---------------------------------------------------------------------------


GTR 1 & 2

---------------------------------------------------------------------------

---------------------------------------------------------------------------

--1515151515151515--14141414--10101010--1414141414141414--1212121212121212-

---X-X-X-X-X-X-X-X---X-X-X-X---X-X-X-X---X-X-X-X-X-X-X-X---X-X-X-X-X-X-X-X-

--1313131313131313--12121212---8-8-8-8--1212121212121212--1010101010101010-

---------------------------------------------------------------------------

_______________________________________________________________________
GTR 1 & 2

---------------------------------

---------------------------------

----------------------------11---

--------7-7-7-7---------7h8----8-

--0-0-0-5-5-5-5-0-0-0-0----------

--0-0-0---------0-0-0-0----------

   . . .         . . . .

GTR 1 & 2

---------------------------------

---------------------------------

----------------------------11---

--------7-7-7-7---------7h8----8-

--0-0-0-5-5-5-5-0-0-0-0----------

--0-0-0---------0-0-0-0----------

   . . .         . . . .

GTR 1 & 2

---------------------------------

---------------------------------

----------------------------11---

--------7-7-7-7---------7h8----8-

--0-0-0-5-5-5-5-0-0-0-0----------

--0-0-0---------0-0-0-0----------

   . . .         . . . .

GTR 1 & 2

---------------------------------

---------------------------------

----------------------------11---

--------7-7-7-7---------7h8----8-

--0-0-0-5-5-5-5-0-0-0-0----------

--0-0-0---------0-0-0-0----------

   . . .         . . . .

GTR 1 & 2

---------------------------------

---------------------------------

----------------------------11---

--------7-7-7-7---------7h8----8-

--0-0-0-5-5-5-5-0-0-0-0----------

--0-0-0---------0-0-0-0----------

   . . .         . . . .
_________________________________________________________________
GTR 1 & 2

---------------------------------------------------------------------------

--------------------------------------------------17-17-17-17-17-17-17-17--

-18-18-18-18-18-18-18-18--20-20-20-20-20-20-20-20--------------------------

---------------------------------------------------------------------------

---------------------------------------------------------------------------

---------------------------------------------------------------------------

______________________________________________________________________-
GTR 1 & 2

---------------------------------

---------------------------------

----------------------------11---

--------7-7-7-7---------7h8----8-

--0-0-0-5-5-5-5-0-0-0-0----------

--0-0-0---------0-0-0-0----------

   . . .         . . . .

GTR 1 & 2

---------------------------------

---------------------------------

----------------------------11---

--------7-7-7-7---------7h8----8-

--0-0-0-5-5-5-5-0-0-0-0----------

--0-0-0---------0-0-0-0----------

   . . .         . . . .

GTR 1 & 2

---------------------------------

---------------------------------

----------------------------11---

--------7-7-7-7---------7h8----8-

--0-0-0-5-5-5-5-0-0-0-0----------

--0-0-0---------0-0-0-0----------

   . . .         . . . .

GTR 1 & 2

---------------------------------

---------------------------------

----------------------------11---

--------7-7-7-7---------7h8----8-

--0-0-0-5-5-5-5-0-0-0-0----------

--0-0-0---------0-0-0-0----------

   . . .         . . . .

GTR 1 & 2

---------------------------------

---------------------------------

----------------------------11---

--------7-7-7-7---------7h8----8-

--0-0-0-5-5-5-5-0-0-0-0----------

--0-0-0---------0-0-0-0----------

   . . .         . . . .
_________________________________________________________________
GTR 1 & 2

-------------------------------------------------------------------

-------------------------------------------------------------------

-1212121212121212--10101010--9999--1010101010101010--9999--5555----

--X-X-X-X-X-X-X-X---X-X-X-X--XXXX---X-X-X-X-X-X-X-X--XXXX--XXXX----

-1010101010101010---8-8-8-8--7777---8-8-8-8-8-8-8-8--7777--3333----

-------------------------------------------------------------------


GTR 1 & 2

-------------------------------------------------------------------

-------------------------------------------------------------------

-1212121212121212--10101010--9999--1010101010101010--9999--5555----

--X-X-X-X-X-X-X-X---X-X-X-X--XXXX---X-X-X-X-X-X-X-X--XXXX--XXXX----

-1010101010101010---8-8-8-8--7777---8-8-8-8-8-8-8-8--7777--3333----

-------------------------------------------------------------------


GTR 1 & 2

-------------------------------------------------------------------

-------------------------------------------------------------------

-1212121212121212--10101010--9999--1010101010101010--9999--5555----

--X-X-X-X-X-X-X-X---X-X-X-X--XXXX---X-X-X-X-X-X-X-X--XXXX--XXXX----

-1010101010101010---8-8-8-8--7777---8-8-8-8-8-8-8-8--7777--3333----

-------------------------------------------------------------------

_______________________________________________________
GTR 1 & 2

---------------------------------------------------------------------------

---------------------------------------------------------------------------

--1515151515151515--14141414--10101010--1414141414141414--1212121212121212-

---X-X-X-X-X-X-X-X---X-X-X-X---X-X-X-X---X-X-X-X-X-X-X-X---X-X-X-X-X-X-X-X-

--1313131313131313--12121212---8-8-8-8--1212121212121212--1010101010101010-

---------------------------------------------------------------------------


GTR 1 & 2

---------------------------------------------------------------------------

---------------------------------------------------------------------------

--1515151515151515--14141414--10101010--1414141414141414--1212121212121212-

---X-X-X-X-X-X-X-X---X-X-X-X---X-X-X-X---X-X-X-X-X-X-X-X---X-X-X-X-X-X-X-X-

--1313131313131313--12121212---8-8-8-8--1212121212121212--1010101010101010-

---------------------------------------------------------------------------


GTR 1 & 2

---------------------------------------------------------------------------

---------------------------------------------------------------------------

--1515151515151515--14141414--10101010--1414141414141414--1212121212121212-

---X-X-X-X-X-X-X-X---X-X-X-X---X-X-X-X---X-X-X-X-X-X-X-X---X-X-X-X-X-X-X-X-

--1313131313131313--12121212---8-8-8-8--1212121212121212--1010101010101010-

---------------------------------------------------------------------------

_________________________________________________________________________
GTR 1 & 2

-------------------------------------------------------------------

-------------------------------------------------------------------

-1212121212121212--10101010--9999--1010101010101010--9999--5555----

--X-X-X-X-X-X-X-X---X-X-X-X--XXXX---X-X-X-X-X-X-X-X--XXXX--XXXX----

-1010101010101010---8-8-8-8--7777---8-8-8-8-8-8-8-8--7777--3333----

-------------------------------------------------------------------


GTR 1 & 2

-------------------------------------------------------------------

-------------------------------------------------------------------

-1212121212121212--10101010--9999--1010101010101010--9999--5555----

--X-X-X-X-X-X-X-X---X-X-X-X--XXXX---X-X-X-X-X-X-X-X--XXXX--XXXX----

-1010101010101010---8-8-8-8--7777---8-8-8-8-8-8-8-8--7777--3333----

-------------------------------------------------------------------


GTR 1 & 2

-------------------------------------------------------------------

-------------------------------------------------------------------

-1212121212121212--10101010--9999--1010101010101010--9999--5555----

--X-X-X-X-X-X-X-X---X-X-X-X--XXXX---X-X-X-X-X-X-X-X--XXXX--XXXX----

-1010101010101010---8-8-8-8--7777---8-8-8-8-8-8-8-8--7777--3333----

-------------------------------------------------------------------

_______________________________________________________________________
GTR 1 & 2

---------------------------------------------------------------------------

---------------------------------------------------------------------------

--1515151515151515--14141414--10101010--1414141414141414--1212121212121212-

---X-X-X-X-X-X-X-X---X-X-X-X---X-X-X-X---X-X-X-X-X-X-X-X---X-X-X-X-X-X-X-X-

--1313131313131313--12121212---8-8-8-8--1212121212121212--1010101010101010-

---------------------------------------------------------------------------


GTR 1 & 2

---------------------------------------------------------------------------

---------------------------------------------------------------------------

--1515151515151515--14141414--10101010--1414141414141414--1212121212121212-

---X-X-X-X-X-X-X-X---X-X-X-X---X-X-X-X---X-X-X-X-X-X-X-X---X-X-X-X-X-X-X-X-

--1313131313131313--12121212---8-8-8-8--1212121212121212--1010101010101010-

---------------------------------------------------------------------------


GTR 1 & 2

---------------------------------------------------------------------------

---------------------------------------------------------------------------

--1515151515151515--14141414--10101010--1414141414141414--1212121212121212-

---X-X-X-X-X-X-X-X---X-X-X-X---X-X-X-X---X-X-X-X-X-X-X-X---X-X-X-X-X-X-X-X-

--1313131313131313--12121212---8-8-8-8--1212121212121212--1010101010101010-

---------------------------------------------------------------------------

_____________________________________________________________________________
GTR 1 & 2

-----------------------------

-----------------------------

-----------------------------

--0~-------------------------
 (FADE WHILE A PIANO PLAYS WUT THE INTRO WAS)

--0~-------------------------

--0~-------------------------




Through struggle


tuning is c g c f a d


B^^^^^r/BEND ONE FULL STEP AND HOLD THEN RELEASE IT

GTR 1 & 2

--------------------------------------------------------------------------

--------------------------------------------------------------------------

--------------------------------------------------------------------------

-0~----------------------------------0~-----------------------------------

-0~----------------------------------0~-----------------------------------

-0~----------------------------------0~-----------------------------------

___________________________________________________________________________
GTR 1

-------------------------------------------------------------------

-------------------------------------------------------------------

-------------------------------------------------------------------

---------------------------------------3-----2-----0-2-3-----3-2-0-

-----8-----7-----7-8-10-----10-8-7-111---111-------------111-------

-000---000---000--------000--------------------444-----------------

  ...   ...   ...        ...        ...   ...   ...       ...
GTR 2

-------------------------------------------------------------------

-------------------------------------------------------------------

-------------------------------------------------------------------

-------------------------------------------------------------------

-----8-----7-----7-8-10-----10-8-7----8-----7-----7-8-10----10-8-7-

-000---000---000--------000-------000---000---000-------000--------

  ...   ...   ...        ...       ...   ...   ...       ...
_______________________________________________________________________
GTR 1

-------------------------------------------------------------------

-------------------------------------------------------------------

-------------------------------------------------------------------

---------------------------------------3-----2-----0-2-3-----3-2-0-

-----8-----7-----7-8-10-----10-8-7-111---111-------------111-------

-000---000---000--------000--------------------444-----------------

  ...   ...   ...        ...        ...   ...   ...       ...
GTR 2

-------------------------------------------------------------------

-------------------------------------------------------------------

-------------------------------------------------------------------

-------------------------------------------------------------------

-----8-----7-----7-8-10-----10-8-7----8-----7-----7-8-10----10-8-7-

-000---000---000--------000-------000---000---000-------000--------

  ...   ...   ...        ...       ...   ...   ...       ...
________________________________________________________________________

GTR 1

-----------------------------------------------------------------

-----------------------------------------------------------------

-----------------------------------------------------------------

-----7-----5-----5-7-8-----8-7-5-----7-----5-----3-5-7-----7-5-3-

-----------------------------------------------------------------

-000---000---000-------000-------777---777---555-------888-------

  ...   ...   ...       ...       ...   ...   ...       ...
GTR 2

-----------------------------------------------------------------

-----------------------------------------------------------------

-----------------------------------------------------------------

-------------------------------------7-----5-----3-5-7-----7-5-3-

-----8-----7----7-8-10----10-8-7---------------------------------

-000---000---000-------000-------777---777---555-------888-------

  ...   ...   ...       ...       ...   ...   ...       ...
_________________________________________________________________________

GTR 1

---------------------------------------------------

---------------------------------------------------

---------------------------------------------------

-----7-----5-----5-7-8-----8-7-5-8-8-8-8-7-5-------

---------------------------------8-8-8-8-----9-7\--

-000---000---000-------000-------8-8-8-8-----------

  ...   ...   ...       ...
GTR 2

---------------------------------------------------

---------------------------------------------------

---------------------------------------------------

-----7-----5-----5-7-8-----8-7-5-8-8-8-8-7-5-------

-000---000---000-------000-------8-8-8-8-----9-7\--

-000---000---000-------000-------8-8-8-8-----------

  ...   ...   ...       ...
__________________________________________________________________________

GTR 1

-----------------------------------------

-----------------21B^^^^^r---------------

-----------------------------------------

-0~------0~----------------------5~------

-0~------0~----------------------5~------

-0~------0~----------------------5~------

GTR 2

-----------------------------------------

-----------------------------------------

-----------------------------------------

-0~------0~------0~------8~------5~------

-0~------0~------0~------8~------5~------

-0~------0~------0~------8~------5~------

__________________________________________________________________________

GTR 1 & 2

----------------------------------------------------------------

----------------------------------------------------------------

----------------------------------------------------------------

-0----------------------------8-----------------5-------------0-

-0---5---8---5---11---8---787-8---8---12---10-8-5---7---8---7-0-

-0-0---0---0---0----0---0-----8-8---8----8------5-5---5---5---0-

    .   .   .   .    .   .       .   .    .        .   .   .
 ---------------

 ---------------

 ---------------

 ---------------

 ---5---8---5---

 -0---0---0---0-

  .   .   .   .
___________________________________________________________________________

GTR 1 & 2

--------------------------------------------------------

--------------------------------------------------------

--------------------------------------------------------

---------------------8-----------------5-------------0--

-10-10-10-8-7-8-7----8---8---12---10-8-5---7---8---7-0--

------------------10-8-8---8----8------5-5---5---5---0--

                        .   .    .        .   .   .
GTR 1 & 2

---------------------------------------------------------

---------------------------------------------------------

---------------------------------------------------------

-------------0-------------8-------------5-------------0-

---8---8-7---0---8---8-7-5-8---7---8-7-5-5---8---7-8-5-0-

-0---0-----0-0-0---0-------8-8---8-------5-5---5-------0-

  .   .     .   .   .         .   .         .   .

GTR 1 & 2

---------------------------------------------------------

---------------------------------------------------------

---------------------------------------------------------

-------------0-------------8-------------5-------------0-

---8---8-7---0---8---8-7-5-8---7---8-7-5-5---8---7-8-5-0-

-0---0-----0-0-0---0-------8-8---8-------5-5---5-------0-

  .   .     .   .   .         .   .         .   .

GTR 1 & 2

---------------------------------------------------------

---------------------------------------------------------

---------------------------------------------------------

---7---7-5---0---7---7-5-3-8---7---7-5-3-5---7---5-7-3-0-

-------------0-------------8-------------5-------------0-

-0---0-----0-0-0---0-------8-8---8-------5-5---5-------0-

  .   .     .   .   .         .   .         .   .

GTR 1 & 2

---------------------------------------------------------

---------------------------------------------------------

---------------------------------------------------------

---7---7-5---0---7---7-5-3-8---7---7-5-3-5---7---5-7-3-0-

-------------0-------------8-------------5-------------0-

-0---0-----0-0-0---0-------8-8---8-------5-5---5-------0-

  .   .     .   .   .         .   .         .   .

GTR 1 & 2

------------------------------------------------------------------------

------------------------------------------------------------------------

------------------------------------------------------------------------

---------------------7---7----------------------------------------------

-----------------5-8---8---8----10-----------------5-8-7-8----7---------

-000-000-000-000-------------10----000-000-000-000---------10---000-000-

  ... ... ... ...                   ... ... ... ...              ... ...

GTR 1 & 2

------------------------------------------------------------------------

------------------------------------------------------------------------

------------------------------------------------------------------------

---------------------7---7----------------------------------------------

-----------------5-8---8---8----10-------------------5-8-7-8----7-------

-000-000-000-000-------------10----0-0-0-0-0-0-0-0-0---------10---0-0-0-

  ... ... ... ...

GTR 1 & 2

------------------------------------------------------------------------

------------------------------------------------------------------------

------------------------------------------------------------------------

---------------------7---7----------------------------------------------

-----------------5-8---8---8----10-----------------5-8-7-8----7---------

-000-000-000-000-------------10----000-000-000-000---------10---000-000-

  ... ... ... ...                   ... ... ... ...              ... ...

GTR 1 & 2

------------------------------------------------------------------------

------------------------------------------------------------------------

------------------------------------------------------------------------

---------------------7---7----------------------------------------------

-----------------5-8---8---8----10-------------------5-8-7-8----7-------

-000-000-000-000-------------10----0-0-0-0-0-0-0-0-0---------10---0-0-0-

  ... ... ... ...

GTR 1 & 2

------------------------------------------

------------------------------------------

------------------------------------------

------------------0-----------------7---0-

------------------0---------------0---8-0-

-0000-0-0-0-000-0-0-0000-0000-000-------0-

  .... . . . ... .   .... .... ...

GTR 1 & 2

------------------------------------------

------------------------------------------

------------------------------------------

------------------0-----------------7---0-

------------------0---------------0---8-0-

-0000-0-0-0-000-0-0-0000-0000-000-------0-

  .... . . . ... .   .... .... ...

GTR 1 & 2

-------------------------------------------------

-------------------------------------------------

-------------------------------------------------

-----------------7---0-----------------------7---

---------------0---8-0---------10-8-7------0---8-

-0000-0000-000-------0-0000-00--------10-7-------

  .... .... ...         .... ..

GTR 1 & 2

-------------------------------------------------

-------------------------------------------------

-------------------------------------------------

-----------------7---0-----------------------7---

---------------0---8-0---------10-8-7------0---8-

-0000-0000-000-------0-0000-00--------10-7-------

  .... .... ...         .... ..

GTR 1

------------------------------------------------------------

------------------------------------------------------------

------------------------------------------------------------

-8-------10---5-------10---0-------10-------------------7---

-8-8-7-8----8-5-8-7-8----8-0-8-7-8----8-7-10-8-7------0---8-

-8------------5------------0---------------------10-7-------


GTR 2

---------------------------------------------------

---------------------------------------------------

---------------------------------------------------

-8~-----------5~-----------0~----------------------

-8~-----------5~-----------0~----------------------

-8~-----------5~-----------0~----------------------


GTR 1

---------------------------------------------------

---------------------------------------------------

---------------------------------------------------

---------10---5-------10---0~----------------------

-8-8-7-8----8-5-8-7-8----8-0~----------------------

-8------------5------------0~----------------------


GTR 2

---------------------------------------------------
---------

---------------------------------------------------
---------

---------------------------------------------------
---------

-8~-----------5~-----------0~----------------------
---------

-8~-----------5~-----------0~----------------------
---------

-8~-----------5~-----------0~----------------------
--8--5---


GTR 1 & 2 (X8)

------------------------------------------------------------------------

------------------------------------------------------------------------

------------------------------------------------------------------------

---------------------7---7----------------------------------------------

-----------------5-8---8---8----10-----------------5-8-7-8----7---------

-000-000-000-000-------------10----000-000-000-000---------10---000-000-

  ... ... ... ...                   ... ... ... ...              ... ...

GTR 1 & 2

------------------------------------------------------------

------------------------------------------------------------

------------------------------------------------------------

-8-------10---5-------10---0-------10-------------------7---

-8-8-7-8----8-5-8-7-8----8-0-8-7-8----8-7-10-8-7------0---8-

-8------------5------------0---------------------10-7-------


GTR 1 & 2

------------------------------------------------------------

------------------------------------------------------------

------------------------------------------------------------

-8-------10---5-------10---0-------10-------------------7---

-8-8-7-8----8-5-8-7-8----8-0-8-7-8----8-7-10-8-7------0---8-

-8------------5------------0---------------------10-7-------


GTR 1 & 2

---------------------------------------------------

---------------------------------------------------

---------------------------------------------------

---------10---5-------10---0~----------------------

-8-8-7-8----8-5-8-7-8----8-0~----------------------

-8------------5------------0~----------------------


GTR 2

-------------------------

-------------------------

-------------------------

-8~-----5~----0~-----0H--

-8~-----5~----0~-----0H--

-8~-----5~----0~-----0H--


GTR 1 & 2

-------------------------------------------------------------------

-------------------------------------------------------------------

-------------------------------------------------------------------

-0-------------------------5-6-5-8-------------------------------0-

-0---5---8---5---10---8----------8---8---10---10-8-5---7---8---7-0-

-0-0---0---0---0----0---0--------8-8---8----8------5-5---5---5---0-


 --------------------------------------------------------------------

 --------------------------------------------------------------------

 --------------------------------------------------------------------

 ---------------------------7--------8-------------------------------

 ---5---8---5-8-10---10-8-7---8-7----8---8---12---10-8----7---8---7--

 -0---0---0-----------------------10-8-8---8----8------55---5---5----


GTR 1 & 2

---------------------------------------------------------------------

---------------------------------------------------------------------

---------------------------------------------------------------------

--------8-----------------5-------------8----------------------------

-8-7----8---8---12---10-8-5---7---8---7-8-8---12---10-8----7---8---7-

-----10-8-8---8----8------5-5---5---5---8---8----8------55---5---5---


GTR 1 & 2

---------------------------------------

---------------------------------------

---------------------------------------

-8-----------------5~------------------

-8---8---12---10-8-5~------------------

-8-8---8----8------5~------------------


GTR 1 & 2 (X4)

-------------------------------

-------------------------------

-------------------------------

-------------------------------

-------------------------------

-000-000-00-00-000-000-000-000-

  ... ... .. .. ... ... ... ...

GTR 1 & 2 (TILL THE END)

-----------------------------------------------------------------

-----------------------------------------------------------------

-----------------------------------------------------------------

-------------------------7---------------------------------7-----

-----------------------0---8-5---------------10-8-7------0---8-5-

-000-000-00-00-000-000---------000-000-00-00--------10-7---------

  ... ... .. .. ... ...         ... ... .. ..
THERE




    The Truth of My Perception - As I Lay Dying





                  This is my first tab so go easy.
                             Please Rate

Tuning:Low To High CGCFAd

0:00        Intro- GTR 1

---------------------------------------------------

---------------------------------------------------

---------------------------------------------------

---------------------------------------------------

-------------8-7-8-----------12-13-10-------8-7-8--

---0---000-----------0-000-------------0-000-------

     *   ***           * ***             * ***
0:03

------------------------------

------------------------------

------------------------------

-------5-7-8---5---7-8-9---7--

-------5-7-8-------7-8-9------

---0---5-7-8-------7-8-9------


 0:05

--------------------------------------------------

--------------------------------------------------

--------------------------------------------------

--------------------------------------------------

-------------8-7-8-----------12-13-10-------8-7-8-

---0---000-----------0-000-------------0-000------

     *   ***           * ***             * ***
0:08

------------------------------

------------------------------

------------------------------

-------5-7-8---5---7-8-9------

-------5-7-8-------7-8-9------

---0---5-7-8-------7-8-9--0---



 0:10        Intro 2- Gtr 1 and 2

---------------------------------------------------

---------------------------------------------------

---------------------------------------------------

---------------------------------------------------

-------------8-7-8-----------12-13-10-------8-7-8--

---0---000-----------0-000-------------0-000-------

     *   ***           * ***             * ***
0:13

----------------------------------

----------------------------------

----------------------------------

-------5-7-8---5---7-8-9---7------

-------5-7-8-------7-8-9----------

---0---5-7-8-------7-8-9----------


0:15

-----------------------------------------------------

-----------------------------------------------------

-----------------------------------------------------

-----------------------------------------------------

-------------8-7-8-----------12-13-10-------8-7-8----

---0---000-----------0-000-------------0-000---------

     *   ***           * ***             * ***
0:18

-------------------------------

-------------------------------

-------5-7-8---5---7-8-9-------

-------5-7-8-------7-8-9-------

---0---5-7-8-------7-8-9--0----


 Don't know the part from 0:20 to 0:41 yet, will put it up when I got it

0:42- 1:02

---------------------------------------------------------------
-------

---------------------------------------------------------------
-------

------10/9--7--5-5/7--7-7--7-7---10/9--7--5-5/12-12-12--9-9-9--
 ------

------x-/x--x--x-x/x--x-x--x-x---x-/x--x--x-x/x--x--x---x-x-x--
  -X 4-

------8-/7--5--3-3/5--5-5--5-5---8-/7--5--3-3/10-10-10--7-7-7--
-------

---------------------------------------------------------------
-------


1:03   Gtr 1

--------------------------------

--------------------------------

--------------------------------

--------------------------------

---000--00000--00000------5807--

---000--00000--00000--0058------

    ***  *****  *****  ********


 1:06

--------------------------------

--------------------------------

--------------------------------

--------------------------------

---000--00000--00000------5708--

---000--00000--00000--0058------

    ***  *****  *****  ********

 1:09

--------------------------------

--------------------------------

--------------------------------

--------------------------------

---000--00000--00000------5807--

---000--00000--00000--0058------

    ***  *****  *****  ********

 1:12

--------------------------------

--------------------------------

--------------------------------

--------------------------------

---000--00000--00000------5708--

---000--00000--00000--0058------

    ***  *****  *****  ********

 1:14  Gtr 1 and 2

-----------------------------------

-----------------------------------

-----------------------------------

------8------8---------8-----------

---000---00000---00000-------5807--

---000---00000---00000---0058------

    ***   *****   *****   ********

 1:17

-----------------------------------

-----------------------------------

-----------------------------------

------8------8---------8-----------

---000---00000---00000-------5708--

---000---00000---00000---0058------

    ***   *****   *****   ********

 1:20

-----------------------------------

-----------------------------------

-----------------------------------

------8------8---------8-----------

---000---00000---00000-------5807--

---000---00000---00000---0058------

    ***   *****   *****   ********

 1:23

-----------------------------------

-----------------------------------

-----------------------------------

------8------8---------8-----------

---000---00000---00000-------5708--

---000---00000---00000---0058------

    ***   *****   *****   ********


         Again don't know the part from 1:26- 1:47


1:48-2:08

---------------------------------------------------------------
-------

---------------------------------------------------------------
-------

------10/9--7--5-5/7--7-7--7-7---10/9--7--5-5/12-12-12--9-9-9--
 ------

------x-/x--x--x-x/x--x-x--x-x---x-/x--x--x-x/x--x--x---x-x-x--
  -X 4-

------8-/7--5--3-3/5--5-5--5-5---8-/7--5--3-3/10-10-10--7-7-7--
-------

---------------------------------------------------------------
-------



solo
2:09-2:31

-------------------------------12-----------------

-----------------10-13----------------------------

--10p9p7-------7-------10-9-10--------------------

---------7----------------------------------------

-----------8-7------------------------------------

--------------------------------------------------


--17-18--15-17--13-15--13p12p9h12-------------12--

----------------------------------13-11-10-11-----

--------------------------------------------------

--------------------------------------------------

--------------------------------------------------

--------------------------------------------------



--------------------------------------------------

--------------------------------------------------

-----14-15-14-------------------------------------

--12----------17-15-14-15-14-12-14b15r------------

--------------------------------------------------

--------------------------------------------------



-------------------------------------------------------------

-------------------------------------------------------------

--14-12-14-15-14-12--15-14-15-17-15-14--17-15-17-19-17-15----

-------------------------------------------------------------

-------------------------------------------------------------

-------------------------------------------------------------

          pick really fast



---------------------------20-------20----------13p12p10h12-----

--17-15-13-15-17-18--18-17----17-18------15b17--------------10--

----------------------------------------------------------------

----------------------------------------------------------------

----------------------------------------------------------------

----------------------------------------------------------------


-------------------------------------------

-------------------------------------------

-------------------------------------------

----------14-12---------15-14-15-17b--19\--

------------------15-14--------------------

-------------------------------------------


--------------------------------------------------------------------------

-15-13----13--------------------------------------------------------------

-------15----15-14-15-14-12--14-12----------------------------------------

-----------------------------------15-14-15---14-12--------15-14-15-17b19/

-----------------------------------------------------15-14----------------

--------------------------------------------------------------------------



2:32   Gtr 1

--------------------------------

--------------------------------

--------------------------------

--------------------------------

---000--00000--00000------5807--

---000--00000--00000--0058------

    ***  *****  *****  ********


 2:35

--------------------------------

--------------------------------

--------------------------------

--------------------------------

---000--00000--00000------5708--

---000--00000--00000--0058------

    ***  *****  *****  ********

2:38

--------------------------------

--------------------------------

--------------------------------

--------------------------------

---000--00000--00000------5807--

---000--00000--00000--0058------

    ***  *****  *****  ********

 2:41

--------------------------------

--------------------------------

--------------------------------

--------------------------------

---000--00000--00000------5708--

---000--00000--00000--0058------

    ***  *****  *****  ********

 2:44  Gtr 1 and 2

-----------------------------------

-----------------------------------

-----------------------------------

------8------8---------8-----------

---000---00000---00000-------5807--

---000---00000---00000---0058------

    ***   *****   *****   ********

2:47

-----------------------------------

-----------------------------------

-----------------------------------

------8------8---------8-----------

---000---00000---00000-------5708--

---000---00000---00000---0058------

    ***   *****   *****   ********

 2:50

-----------------------------------

-----------------------------------

-----------------------------------

------8------8---------8-----------

---000---00000---00000-------5807--

---000---00000---00000---0058------

    ***   *****   *****   ********

 2:53

-----------------------------------

-----------------------------------

-----------------------------------

------8------8---------8-----------

---000---00000---00000-------5708--

---000---00000---00000---0058------

    ***   *****   *****   ********

 2:56

---------------------------------------------------

---------------------------------------------------

---------------------------------------------------

---------------------------------------------------

-------------8-7-8-----------12-13-9--------8-7-8--

---0---000-----------0-000-------------0-000-------

     *   ***           * ***             * ***

 2:59

------------------------------

------------------------------

------------------------------

-------5-7-8---5---7-8-9---7--

-------5-7-8-------7-8-9------

---0---5-7-8-------7-8-9------


 3:01

--------------------------------------------------

--------------------------------------------------

--------------------------------------------------

--------------------------------------------------

-------------8-7-8-----------12-13-9--------8-7-8-

---0---000-----------0-000-------------0-000------

     *   ***           * ***             * ***
3:04

------------------------------

------------------------------

------------------------------

-------5-7-8---5---7-8-9------

-------5-7-8-------7-8-9------

---0---5-7-8-------7-8-9--0---




Control is dead


Drop C-

 Intro

--------------------------------------------------------------------


--------------------------------------------------------------------


-------7---------9----------------------10---------12---------------


---------7---------7-----------------------7----------7-------5-7-8-


--------------------------------------------------------------------


-0-0-0-----0-0-0-----0-0-00000000-0-0-0------0-0-0------0-0-0-------

   . . .     . . .     . . ........ . . .      . . .      . . .

--------------------------------------------------------------------


--------------------------------------------------------------------


-------7---------9---------10--------12-----------------------------


---------7---------7---------7----------7------5-7-8----------------


--------------------------------------------------------------------


-000-0-----0-000-----0-000-----0-000-------0-0----------------------

   ... .     . ...     . ...     . ...       . .

--------------------------------------------------------------------


--------------------------------------------------------------------


-------7---------9---------10--------12-----------------------------


---------7---------7---------7----------7------5-8-7----------------


--------------------------------------------------------------------


-000-0-----0-000-----0-000-----0-000-------0-0----------------------

   ... .     . ...     . ...     . ...       . .

  Vers  I

--------------------------------------------------------------------


--------------------------------------------------------------------


--------------------------------------------------------------------


--------7---------8---------------------10---------8----------------


----------5---------5----------------------8---------5--------------


-000000-----00000-----00000-5-7-8-00000------00000-----00000-5-8-7--
 x2
   ......     .....     .....       .....      .....     .....

--------------------------------------------------------------------


--------------------------------------------------------------------


--------------------------------------------------------------------


--------7---------8--------------------10---------8-----------------


----------5---------5---------------------8---------5---------------


-000000-----00000-----0000000000000000------00000-----00000-5-7-8---

   ......     .....     ................      .....     .....

--------------------------------------------------------------------


--------------------------------------------------------------------


--------------------------------------------------------------------


--------7---------8--------------------10---------8-----------------


----------5---------5---------------------8---------5---------------


-000000-----00000-----0000000000000000------00000-----00000-5-8-7---

   ......     .....     ................      .....     .....

  Repeat Intro

  Vers II

--------------------------------------------------------------------


--------------------------------------------------------------------


--------------------------------------------------------------------


--------------------------------------------------------------8-7---


-000-0-------0-0-000-0-000-0-000-000-0-------0-0-6-5---10-9---------


-000-0-6-3-0-0-0-000-0-000-0-000-000-0-6-3-0-0-0-----0------0-------

   ... .       . . ... . ... . ... ... .       . .     .      .

--------------------------------------------------------------------


--------------------------------------------------------------------


--------------------------------------------------------------------


-------------------------------------------------8-7----------------


-000-0-------0-0-000-0-000-0-000-000-0-------0-0-------12-9---9-6---


-000-0-6-3-0-0-0-000-0-000-0-000-000-0-6-3-0-0-0-----0------0-------
 x3
   ... .       . . ... . ... . ... ... .       . .     .      .

--------------------------------------------------------------------


--------------------------------------------------------------------


--------------------------------------------------------------------


--------------------------------------------------------------8-7---


-000-0-------0-0-0-0-0-0-0-0-0-0-000-0-------0-0-6-5---10-9---------


-000-0-6-3-0-0-0-0-0-0-0-0-0-0-0-000-0-6-3-0-0-0-----0------0-------

   ... .       . . . . . . . . . . ... .       . .     .      .

--------------------------------------------------------------------


--------------------------------------------------------------------


--------------------------------------------------------------------


-------------------------------------------------8-7----------------


-000-0-------0-0-0-0-0-0-0-0-0-0-000-0-------0-0-------12-9---6-----


-000-0-6-3-0-0-0-0-0-0-0-0-0-0-0-000-0-6-3-0-0-0-----0------0-------

   ... .       . . . . . . . . . . ... .       . .     .      .

  Repeat Intro

  Vers III

--------------------------------------------------------------------


--------------------------------------------------------------------


--------------------------------------------------------------------


-----7---------7-----7---------7-----7---------7-----7---------7----


---------6-3-------------6-3-------------6-3-------------6-3--------


-0-0---0-----0---0-0---0-----0---0-0---0-----0---0-0---0-----0------

   . .   .     .   . .   .     .   . .   .     .   . .   .     .

--------------------------------------------------------------------


--------------------------------------------------------------------


--------------------------------------------------------------------


--------------------------------------------------------------------


-----8---------8-----8---------8-----8---------8-----8---------8----


-0-0---0-9-6-0---0-0---0-9-6-0---0-0---0-9-6-0---0-0---0-9-6-0------

   . .   .     .   . .   .     .   . .   .     .   . .   .     .




Morning waits

Drop C-

  Intro Vers I, Guitar I

---------------------------------------------------------------------


---------------------------------------------------------------------


-----7---7-----7-----7---10-9-5-7-----7---7-----7-----7---10-12-10-9-


-0-7---7---7-7---7-7---7----------0-7---7---7-7---7-7---7------------


---------------------------------------------------------------------


---------------------------------------------------------------------
 x2

  Intro Vers I, Guitar II

---------------------------------------------------------------------


---------------------------------------------------------------------


---------------------------------------------------------------------


---------------------------------------------------------------------


-0-0-0-0-0-0-0-0-0-0-0-0-0-0-0-0-0-0-0-0-0-0-0-0-0-0-0-0-0-0-0-0-0-0-


-0-0-0-0-0-0-0-0-0-0-0-0-0-0-0-0-0-0-0-0-0-0-0-0-0-0-0-0-0-0-0-0-0-0-



---------------------------------------------------------------------------------


---------------------------------------------------------------------------------


---------------------------------------------------------------------------------


---------------------------------------------------------------------------------


-8-8-8-8-8-8-8-8-8-8-8-8-8-8-8-8-10-10-10-10-10-10-10-10-10-10-10-10-10-10-10-10-


-8-8-8-8-8-8-8-8-8-8-8-8-8-8-8-8-10-10-10-10-10-10-10-10-10-10-10-10-10-10-10-10-


  Intro Vers II

----------------------------------------------------------------------------------


-------------------------------10-8------------------------------------10-11-10-8-


-----10-----10---10-----10----------9-10-----10-----10---10-----10----------------


----------------------------------------------------------------------------------


-000----000---------000----000-----------000----000---------000----000------------


-000----000----0----000----000-----------000----000----0----000----000------------

   ...    ...    .    ...    ...           ...    ...    .    ...    ...

---------------------------------------------------------------------------------------------


-------------------------------10-8----------------------------------------------------------


-----10-----10---10-----10----------9-10-------10--------10----10---------10-----------------


------------------------------------------------------------------------------------9-10-9-7-


-888----888---------888----888-----------101010----101010----------101010----101010----------


-888----888----8----888----888-----------101010----101010----10----101010----101010----------

   ...    ...    .    ...    ...           . . .     . . .     .     . . .     . . .

  Vers I

-----------------------------------------------------------------------


-----------------------------------------------------------------------


-----------------------------------------------------------5-4---------


-----10---9---10---7---10-9---10---7-----10---9---10---7---------5---7-


-----------------------------------------------------------------------


-0-0----0---0----0---0------0----0---0-0----0---0----0---0-----0---0---

   . .    .   .    .   .      .    .   . .    .   .    .   .     .   .

  Vers II

--------------------------------------------------------------


--------------------------------------------------------------


------55------44------00------55------44------77--------------


-7777----7777----7777----7777----7777----7777-----------------


--------------------------------------------------------------


--------------------------------------------------------------



--------------------------------------------------------------


--------------------------------------------------------------


------55------44------00--------------------------------------


-7777----7777----7777----3333-2222-3333-5555------------------


--------------------------------------------------------------


--------------------------------------------------------------


  Vers III, Guitar I

--------------------------------------------------------------


--------------------------------------------------------------


--9-----------------------------------------------------------


----10----12-10-9-------12-9----10-9--------------------------


-------12---------7-10-------10------12-10--------------------


--------------------------------------------------------------


  Guitar II

--------------------------------------------------------------


--------------------------------------------------------------


--------------------------------------------------------------


--------------------------------------------------------------


-7-7-7--7-7--7--77777--77777--5-5-5--5-5--5--55555--55555-----


-7-7-7--7-7--7--77777--77777--5-5-5--5-5--5--55555--55555-----

   . .    . .  .  ....   ....   . .    . .  .  ....   ....

---------------------------------------------------------------


---------------------------------------------------------------


---------------------------------------------------------------


---------------------------------------------------------------


-0-0-0--0-0--0--00000--00000--3-3-3--3-3--3--1010101010--55555-


-0-0-0--0-0--0--00000--00000--3-3-3--3-3--3--1010101010--55555-

   . .    . .  .  ....   ....   . .    . .  .  . . . .     ....

  Vers IIII

------------------------------------------------------------------


------------------------------------------------------------------


------------------------------------------------------------------


------------------------------------------------------------------


-----5-----5---5-----5---8-7-3-5-----5-----5---5-----5---8-10-8-7-


-0-0---0-0---0---0-0---0---------0-0---0-0---0---0-0---0----------

   . .   . .   .   . .   .         . .   . .   .   . .   .

--------------------------------------------------------------------------


--------------------------------------------------------------------------


--------------------------------------------------------------------------


--------------------------------------------------------------------------


-----5-----5---5-----5---8-7-3-5-------5-------5----5-------5----8-10-8-7-


-8-8---8-8---8---8-8---8---------10-10---10-10---10---10-10---10----------

   . .   . .   .   . .   .         .  .    .  .    .    .  .    .

------------------------------------------------------------------------


------------------------------------------------------------------------


------------------------------------------------------------------------


------------------------------------------------------------------------


-000-8-000-8---8-000-8-000-12-10-7-8-000-8-000-8---8-000-8-000-8-10-8-7-


-000---000---0---000---000-----------000---000---0---000---000----------

   ...   ...   .   ...   ...           ...   ...   .   ...   ...

---------------------------------------------------------------------------------------


---------------------------------------------------------------------------------------


---------------------------------------------------------------------------------------


----------------------------------------------------------------------------10-12-10-9-


-888-8-888-8---8-888-8-888-12-10-7-8-101010-8-101010-8----8-101010-8-101010------------


-888---888---8---888---888-----------101010---101010---10---101010---101010------------

   ...   ...   .   ...   ...           . . .    . . .    .    . . .    . . .

  Repeat Vers I

  Repeat Vers II

  Repeat Vers III

  Guitar I

--------------------------------------------------------------


--------------------------------------------------------------


---9-10---10-12---12---14-12---12-10---10---------------------


--------------------------------------------------------------


--------------------------------------------------------------


-0------0-------0----0-------0-------0------------------------

   .      .       .    .       .       .

Illusions mIssing...Sorry
 


/
How To Set Up Higher Praise As Your Home Page
Copyright 1999, Higher Praise HigherPraise,Inc. All rights reserved. Terms of Use

Enjoy A Life Changing Experience

 
 
 
HigherPraise, Higher Praise, HigherPraise, Higher Praise, HigherPraise

Members..Sign Up. LogIn

 
 

Higher Praise Other Sites
 
 

HigherPraise.org/
Praise And Worship
www.higherpraise.org

HigherPraise.net
Christian Resources
www.higherpraise.net

HigherPraiseTube.com
Videos And Audios
www.higherpraisetube.com.


ChristianLyrics.org

Lyrics And Chrords
www.christianlyrics.org

ChristianChordsLyrics

Lyrics And Chrords
www.christianchordslyrics.com

ChristianChordLyrics

Lyrics And Chrords
www.christianchordlyrics.com

WorshipLyrics.org
10.000 Illustrations
www.worshiplyrics.org

WorshipLyrics.net
10.000 Illustrations
www.worshiplyrics.net

PraiseLyrics.com
PowerPoint Lyrics

www.praiselyrics.com

PraiseLyrics.org
PowerPoint Lyrics

www.praiselyrics.org

1GodTube.com
Chistian Videos

www1godtube..com

OneGodTube.com
Chistian Videos

www.onegodtube..com

 

/
Copyright 1999 - 2019, Higher Praise™ HigherPraise™,Inc. All rights reserved. Terms of Use