Higher Praise - Guitar Chords, Lyrics  GuitarTabs -  Praise nad Worship Music And Christian Songs

Higher Praise - Guitar Tabs, Guitar Chords, Lyrics
   Lyrics, Chords And Tabs
   Popular Lyrics Chords Tab
   Power Point Lyrics
   Praise & Worship Music
   Christian Music Videos
   15900 Videos & Audios
   Midi Files
   Worship Questions
   Christmas Chords, Lyrics
   Lyrics, Chords Tabs Rated

Sermon Outlines And Audio Sermons
   9344 Sermon Outlines
   N.T. Sermon Outlines
   O.T. Sermon Outlines
   Special Guest Outlines
   10.000 Illustrations
   Sunday School Studies
   Bible College Studies
   Greatest Preachers
   Bible Research Tools
Audio Sermons
   2895 Audio Sermons
   85 Sermon Videos
   291 Special Guests Serm

   Complete Audio Bible
Higher Praise Sunday School Teaching
   Children's NT Studies
   Children's OT Studies

   98 Children's Midis
   Gospel For Kids Movie
   Children's JESUS Film
Higher Praise Christian Video Library ,Videos
   Christian Television
   TBN TV Live
   15,000 Videos - HP Tube
   712 Youth Music Vids
  Christian Video Library
   Praise Videos #1 & #2
   85 Sermon Videos
   Prophecy Film -Videos
   JESUS Film -Video
   Childrens JESUS Film
   Gospel For Kids Movie
   Passion Of The Christ
   Noah, Sodom, Sinai, Ark
   Tsunami Videos Photos
News And Information
   Testimonies
   Submit Lyrics, Tabs, Serm
   10.000 Illustrations
   Bible College Course
   Clipart & Web Graphics
   Greatest Preachers
   Complete Talking Bible
   Christian Chat Rooms
   Links Church Resource
   HP Statement Of Faith
Download Clipart
   Audio Sermons
   Clipart & Web Graphics
   Church Administration
   Bible Study Software
   Screen Savers Software
   Verse A Day Software
   Educational Games
   Trade Center Photos

   Soft. Search Engine
Higher Praise News
   Current News
    Archived News
   Submit News
   Newsletter   Higher Praise Interact Prayer
   Prayer For All Needs
   
Submit Lyrics, Sermons
   
Contact Higher Praise
   
Advertising 
   Privacy Policy
//
He Died For You,  Click For Answer! This Is Who Jesus Is Video

'
 
0-9 A B C D E F G H I J K L M N O P Q R S T U V W X Y Z
.

//
Click For Printable...Version Of This File
 

Nothing Left


by As I Lay Dying




#----------------------------------PLEASE NOTE---------------------------------#
#This file is the author's own work and represents their interpretation of the #
#song. You may only use this file for private study, scholarship, or research. #
#------------------------------------------------------------------------------#






WOOT!! another song off the new album
i'm pretty sure most of it is correct (even the solo)
but i'm not so positive about the chorus (don't really like that part anyway)

so here ya go
email me if you want the powertab


 

 

Gtr I (C G C F A D) - 'Untitled'
Gtr II (C G C F A D) - 'Untitled'
Gtr III (C G C F A D) - 'Untitled'


Update 12-19-07:
aright i know most of you guys know my intro is wrong
so i figured out one that sounds as accurate as i can find
and matches what's on the video:

D------------------
-----------------
-----------------
-----------------
A------------------
-----------------
-----------------
-----------------
F------------------
-----------------
-----------------
-----------------
C------------------
-8---------------
-7---------------
-----------------
G----5---5---5---5-
---5---5---5---5-
---5---5---5---5-
-----0-1-0-------
C--0---0---0---0---
-----0---0---0---
-----0---0---0---
-0-3-------3-1-3-

D------------------
-----------------
-----------------
-----------------
A------------------
-----------------
-----------------
-----------------
F------------------
-5---------------
-----------------
-----------------
C------------------
-----------------
-8---------------
-----------------
G----5---5---5---5-
---5---5---5---5-
---5---5---5---5-
-----0-1-0-------
C--0---0---0---0---
-----0---0---0---
-----0---0---0---
-0-3-------3-1-3-

sorry i took so long to update
just put that in wherever it goes 
cuz i don't wanna have to change all the spots in this tab
i'm still sure the solo is very close along with the rest of the riffs

  Q=186
  Gtr I
  E E E E E E E E   E E E E E E E E   E E E E E E E E   E E E E E E E E

-----------------
-----------------
-----------------
-----------------

-----------------
-----------------
-----------------
-----------------

-----------------
-----------------
-----------------
-----------------

---0---0---0---0-
-8-0---0---0---0-
-7-0---0---0---0-
-----------------

-----------------
-----------------
-----------------
-------5---------

-0---0---0---0---
-----0---0---0---
-----0---0---0---
-0-3-7---8-5-1-3-



 Gtr II

 E E Q   Q   Q     Q   Q   Q   E E   E E Q   Q   Q     E E E E E E E E

-----------------
-----------------
-----------------
-----------------

-----------------
-----------------
-----------------
-----------------

-----------------
-----------------
-----------------
-----------------

-----------------
-----------------
-----------------
-----------------

-0-0-------------
---------------0-
-0-0-------------
-------5---------

-0-0-------------
---------------0-
-0-0-------------
-0-3-7---8-5-1-3-



  E E E E E E E E    E E E E E E E E   E E E E E E E E   E E E E E E E E

-----------------
------------------
-----------------
-----------------

-----------------
------------------
-----------------
-----------------

-----------------
------------------
-----------------
-----------------

-7-0---0---0---0-
-10-0---0---0---0-
-8-0---0---0---0-
-----------------

-----------------
------------------
-----------------
-------5---------

-----0---0---0---
------0---0---0---
-----0---0---0---
-0-3-7---8-5-1-3-



 E E Q   Q   E E    E E Q   Q   E E   E E Q   Q   Q     E E E E E E E E

-----------------
------------------
-----------------
-----------------

-----------------
------------------
-----------------
-----------------

-----------------
------------------
-----------------
-----------------

-----------------
------------------
-----------------
-------------7---

-0-0-----------0-
--0-0-----------0-
-0-0-------------
-------5-------8-

-0-0-----------0-
--0-0-----------0-
-0-0-------------
-0-3-7---8-5-----



   E E E E E E E E    E E E E E E E E    E E E E E E E E   E E E E E E E E

------------------
------------------
------------------
-----------------

------------------
------------------
------------------
-----------------

------------------
------------------
------------------
-----------------

--7-0---0---0---0-
--8-0---0---0---0-
--7-0---0---0---0-
-----------------

------------------
------------------
------------------
-------5---------

------0---0---0---
------0---0---0---
------0---0---0---
-0-3-7---8-5-1-3-



  W                  W                  W                 E E E E E E E E

------------------
------------------
------------------
-----------------

-10---------------
-11---------------
-10---------------
-----------------

------------------
------------------
------------------
-----------------

--7---------------
--8---------------
--7---------------
-----------------

------------------
------------------
------------------
-------5---------

------------------
------------------
------------------
-0-3-7---8-5-1-3-



   E E E E E E E E    E E E E E E E E    E E E E E E E E   E E E E E E E E

------------------
------------------
------------------
-----------------

------------------
------------------
------------------
-----------------

------------------
------------------
------------------
-----------------

--7-0---0---0---0-
-10-0---0---0---0-
--8-0---0---0---0-
-----------------

------------------
------------------
------------------
-------5---------

------0---0---0---
------0---0---0---
------0---0---0---
-0-3-7---8-5-1-3-



  W                  W                  W                 E E E E E E E E

------------------
------------------
------------------
-----------------

-10---------------
-13---------------
-11---------------
-----------------

------------------
------------------
------------------
-----------------

--7---------------
-10---------------
--8---------------
-------------7---

------------------
------------------
------------------
-------5-------8-

------------------
------------------
------------------
-0-3-7---8-5-----



  E E E E E E E E   E E E E E E E E   E E E E E E E E   E E E E E E E E

-----------------
-----------------
-----------------
-----------------

-----------------
-----------------
-----------------
-----------------

-----------------
-----------------
-----------------
-----------------

-7-0---0---0---0-
-8-0---0---0---0-
-7-0---0---0---0-
-----------------

-----------------
-----------------
-----------------
-------5---------

-----0---0---0---
-----0---0---0---
-----0---0---0---
-0-3-7---8-5-1-3-



 E E E E E E E E   E E E E E E E E   E E E E E E E E   E E E E E E E E

-----------------
-----------------
-----------------
-----------------

-----------------
-----------------
-----------------
-----------------

-----------------
-----------------
-----------------
-----------------

-7-0---0---0---0-
-8-0---0---0---0-
-7-0---0---0---0-
-----------------

-----------------
-----------------
-----------------
-------5---------

-----0---0---0---
-----0---0---0---
-----0---0---0---
-0-3-7---8-5-1-3-



  E E E E E E E E    E E E E E E E E   E E E E E E E E   E E E E E E  Q

-----------------
------------------
-----------------
------------------

-----------------
------------------
-----------------
------------------

-----------------
------------------
-----------------
------------------

-7-0---0---0---0-
-10-0---0---0---0-
-8-0---0---0---0-
------------------

-----------------
------------------
-----------------
-------5-----[5]--

-----0---0---0---
------0---0---0---
-----0---0---0---
-0-3-7---8-5------



 E E E E E E E E    E E E E E E E E   E E E E E E E E   E E E E E E  Q

-----------------
------------------
-----------------
------------------

-----------------
------------------
-----------------
------------------

-----------------
------------------
-----------------
------------------

-7-0---0---0---0-
-10-0---0---0---0-
-8-0---0---0---0-
------------------

-----------------
------------------
-----------------
-------5-----[5]--

-----0---0---0---
------0---0---0---
-----0---0---0---
-0-3-7---8-5------



  E E E E E E E E   E E E E E E E E   E E E E E E E E   E E E E E E E E

-----------------
-----------------
-----------------
-----------------

-----------------
-----------------
-----------------
-----------------

-----------------
-----------------
-----------------
-----------------

-7-0---0---0---0-
-8-0---0---0---0-
-7-0---0---0---0-
-----------------

-----------------
-----------------
-----------------
-------5---------

-----0---0---0---
-----0---0---0---
-----0---0---0---
-0-3-7---8-5-1-3-



 E E E E E E E E   E E E E E E E E   E E E E E E E E   E E E E E E E E

-----------------
-----------------
-----------------
-----------------

-----------------
-----------------
-----------------
-----------------

-----------------
-----------------
-----------------
-----------------

-7-0---0---0---0-
-8-0---0---0---0-
-7-0---0---0---0-
-----------------

-----------------
-----------------
-----------------
-------5---------

-----0---0---0---
-----0---0---0---
-----0---0---0---
-0-3-7---8-5-1-3-



  E E E E E E E E    E E E E E E E E   E E E E E E E E   E E E E E E E E

-----------------
------------------
-----------------
-----------------

-----------------
------------------
-----------------
-----------------

-----------------
------------------
-----------------
-----------------

-7-0---0---0---0-
-10-0---0---0---0-
-8-0---0---0---0-
-----------------

-----------------
------------------
-----------------
-------5---------

-----0---0---0---
------0---0---0---
-----0---0---0---
-0-3-7---8-5-1-3-



 E E E E E E E E    E E E E E E E E   E E E E E E E E   E E E E E E E E

-----------------
------------------
-----------------
-----------------

-----------------
------------------
-----------------
-----------------

-----------------
------------------
-----------------
-----------------

-7-0---0---0---0-
-10-0---0---0---0-
-8-0---0---0---0-
-----------------

-----------------
------------------
-----------------
-------5---------

-----0---0---0---
------0---0---0---
-----0---0---0---
-0-3-7---8-5-1-3-



  W

------

------

------

------

-8----

-8----



 W

------

------

------

------

-8----

-8----



  S S S S Q  E E E E   S S S S Q  E E E E

--------------------
--------------------

--------------------
--------------------

--------------------
--------------------

--------------------
--------------------

--------------------
--------------------

-0-0-0-0-0----0---0-
-0-0-0-0-0----0---0-



 S S S S Q  E E E E   S S S S Q  E E E E

--------------------
--------------------

--------------------
--------------------

--------------------
--------------------

--------------------
--------------------

--------------------
--------------------

-0-0-0-0-0----0---0-
-0-0-0-0-0----0---0-



  S S S S Q  E E E E   S S S S S S S S S S S S S S S S

--------------------
----------------------------------

--------------------
----------------------------------

--------------------
----------------------------------

--------------------
----------------------------------

--------------------
----------------------------------

-0-0-0-0-0----0---0-
-7-0-0-0-5-0-0-0-7-0-0-0-3-0-0-0--



 S S S S Q  E E E E   S S S S S S S S S S S S S S S S

--------------------
----------------------------------

--------------------
----------------------------------

--------------------
----------------------------------

--------------------
----------------------------------

--------------------
----------------------------------

-0-0-0-0-0----0---0-
-7-0-0-0-5-0-0-0-7-0-0-0-3-0-0-0--



  S S S S Q  E E E E   S S S S Q  E E E E

--------------------
--------------------

--------------------
--------------------

--------------------
--------------------

--------------------
--------------------

--------------------
--------------------

-0-0-0-0-0----0---0-
-0-0-0-0-0----0---0-



 S S S S Q  E E E E   S S S S Q  E E E E

--------------------
--------------------

--------------------
--------------------

--------------------
--------------------

--------------------
--------------------

--------------------
--------------------

-0-0-0-0-0----0---0-
-0-0-0-0-0----0---0-



  S S S S Q  E E E E   S S S S S S S S S S S S  Q

--------------------
------------------------------------

--------------------
------------------------------------

--------------------
------------------------------------

--------------------
------------------------------------

--------------------
-------------------------12\--------

-0-0-0-0-0----0---0-
-7-0-0-0-5-0-0-0-7-0-0-0-12---------



 S S S S Q  E E E E   S S S S S S S S S S S S  S  S S S

--------------------
------------------------------------

--------------------
------------------------------------

--------------------
------------------------------------

--------------------
------------------------------------

--------------------
------------------------------------

-0-0-0-0-0----0---0-
-7-0-0-0-5-0-0-0-7-0-0-0--3--0-0-0--



     S S S S  Q        E   E    E   E      S S S S  Q        E   E    E   E

--------------------------------------
-------------------------------------


o-------------------------------------
-------------------------------------


--------------------------------------
-------------------------------------


--------------------------------------
-------------------------------------


o-------------------------------------
-------------------------------------


---0-0-0-0--0------------0--------0---
--0-0-0-0--0------------0--------0---



    S S S S  S S S S  S S S S  S S S S    S S S S  S S S S  S S S S  S S S S

--------------------------------------
-------------------------------------


o-------------------------------------
-------------------------------------


--------------------------------------
-------------------------------------


--12-0-0-0-12-0-0-0-12-0-0-0-12-0-0-0-
-12-0-0-0-12-0-0-0-12-0-0-0-12-0-0-0-


o-------------------------------------
-------------------------------------


--------------------------------------
-------------------------------------



   S S S S  Q        E   E    E   E      S S S S  S S S S S S S S S S S  S

-------------------------------------
----------------------------------------


-------------------------------------
---------------------------------------o


-------------------------------------
----------------------------------------


-------------------------------------
----------------------------------------


-------------------------------------
---------------------------------------o


--0-0-0-0--0------------0--------0---
--7-0-0-0--5-0-0-0-7-0-0-0-3-0-0--0-----



  S S S S  S S S S  S S S S  S S S S    S S S S  S S S S S S S S S S S  S

-------------------------------------
----------------------------------------


-------------------------------------
---------------------------------------o


-------------------------------------
----------------------------------------


-12-0-0-0-12-0-0-0-12-0-0-0-12-0-0-0-
-10-0-0-0-10-0-0-0-8-0-0-0-0-7-8-10-----


-------------------------------------
---------------------------------------o


-------------------------------------
----------------------------------------



  E E E E E E E E   E E E E E E E E   E E E E E E E E   E E E E E E E E

-----------------
-----------------
-----------------
-----------------

-----------------
-----------------
-----------------
-----------------

-----------------
-----------------
-----------------
-----------------

-7-0---0---0---0-
-8-0---0---0---0-
-7-0---0---0---0-
-----------------

-----------------
-----------------
-----------------
-------5---------

-----0---0---0---
-----0---0---0---
-----0---0---0---
-0-3-7---8-5-1-3-



 E E E E E E E E   E E E E E E E E   E E E E E E E E   E E E E E E E E

-----------------
-----------------
-----------------
-----------------

-----------------
-----------------
-----------------
-----------------

-----------------
-----------------
-----------------
-----------------

-7-0---0---0---0-
-8-0---0---0---0-
-7-0---0---0---0-
-----------------

-----------------
-----------------
-----------------
-------5---------

-----0---0---0---
-----0---0---0---
-----0---0---0---
-0-3-7---8-5-1-3-



  E E E E E E E E    E E E E E E E E   E E E E E E E E   E E E E E E E E

-----------------
------------------
-----------------
-----------------

-----------------
------------------
-----------------
-----------------

-----------------
------------------
-----------------
-----------------

-7-0---0---0---0-
-10-0---0---0---0-
-8-0---0---0---0-
-----------------

-----------------
------------------
-----------------
-------5---------

-----0---0---0---
------0---0---0---
-----0---0---0---
-0-3-7---8-5-1-3-



 E E E E E E E E    E E E E E E E E   E E E E E E E E   E E E E E E E E

-----------------
------------------
-----------------
-----------------

-----------------
------------------
-----------------
-----------------

-----------------
------------------
-----------------
-----------------

-7-0---0---0---0-
-10-0---0---0---0-
-8-0---0---0---0-
-------------7---

-----------------
------------------
-----------------
-------5-------8-

-----0---0---0---
------0---0---0---
-----0---0---0---
-0-3-7---8-5-----



   H          +E  E  E E    H           +E  E  E  E

------------------------
-----------------------11-

------------------------
-10----------(10)---------

-/7----------(7)-7-10-7-
------------------7-10----

------------------------
--------------------------

------------------------
--------------------------

------------------------
--------------------------



  S S S S Q   E  E  E E    S S S S Q    E  E  E  E

------------------------
--------------------------

------------------------
--------------------------

------------------------
--------------------------

------------------------
--------------------------

------------------------
--------------------------

--0-0-0-0-0------0----0-
--0-0-0-0-0-------0-----0-



   W                     +E     S S  E   E    H

-10------------------
-(10)---10-8------8---------------------

---------------------
-------------11-------10----------------

---------------------
----------------------------------------

---------------------
----------------------------------------

---------------------
----------------------------------------

---------------------
----------------------------------------



  S S S S Q  E E E E     S  S  S S  S S S S  S S S S S S S S

---------------------
----------------------------------------

---------------------
----------------------------------------

---------------------
----------------------------------------

---------------------
----------------------------------------

---------------------
----------------------------------------

--0-0-0-0-0----0---0-
---7--0--0-0--5-0-0-0--7-0-0-0-3-0-0-0--



   H          +E  E  E E    H           +E  E  E  E

------------------------
-----------------------10-

------------------------
-10----------(10)---------

-/7----------(7)-7-10-7-
------------------7-10----

------------------------
--------------------------

------------------------
--------------------------

------------------------
--------------------------



  S S S S Q   E  E  E E    S S S S Q    E  E  E  E

------------------------
--------------------------

------------------------
--------------------------

------------------------
--------------------------

------------------------
--------------------------

------------------------
--------------------------

--0-0-0-0-0------0----0-
--0-0-0-0-0-------0-----0-



 Gtr III

  H          +E  E  E E    H           +E  E  E  E

------------------------
-10----------(10)------17-

--6----------(6)-6-10-6-
------------------6-10----

------------------------
--------------------------

------------------------
--------------------------

------------------------
--------------------------

------------------------
--------------------------



   H               +E    E  E  E    W

-10b11===========(10)r--8-----8-
-10------------

--------------------------10----
---------------

--------------------------------
---------------

--------------------------------
---------------

--------------------------------
---------------

--------------------------------
---------------



  S     S S S Q    E    E  E  E    Q.   Q.   Q

--------------------------------
---------------

--------------------------------
---------------

--------------------------------
---------------

--------------------------------
---------------

--------------------------------
--7----5----3--

--0-----0-0-0-0---------0-----0-
--7----5----3--



  H               +E    E  E  E    W

-17b18===========(17)r-15----15-
-17------------

--------------------------18----
---------------

--------------------------------
---------------

--------------------------------
---------------

--------------------------------
---------------

--------------------------------
---------------



     S S S S  Q        E   E    E   E      S S S S  Q        E   E    E   E

--------------------------------------
-------------------------------------


o-------------------------------------
-------------------------------------


--------------------------------------
-------------------------------------


--------------------------------------
-------------------------------------


o-------------------------------------
-------------------------------------


---0-0-0-0--0------------0--------0---
--0-0-0-0--0------------0--------0---



    S S S S  S S S S  S S S S  S S S S    S S S S  S S S S  S S S S  S S S S

--------------------------------------
-------------------------------------


o-------------------------------------
-------------------------------------


--------------------------------------
-------------------------------------


--12-0-0-0-12-0-0-0-12-0-0-0-12-0-0-0-
-12-0-0-0-12-0-0-0-12-0-0-0-12-0-0-0-


o-------------------------------------
-------------------------------------


--------------------------------------
-------------------------------------



   S S S S  Q        E   E    E   E      S S S S  S S S S S S S S S S S  S

-------------------------------------
----------------------------------------


-------------------------------------
---------------------------------------o


-------------------------------------
----------------------------------------


-------------------------------------
----------------------------------------


-------------------------------------
---------------------------------------o


--0-0-0-0--0------------0--------0---
--7-0-0-0--5-0-0-0-7-0-0-0-3-0-0--0-----



  S S S S  S S S S  S S S S  S S S S    S S S S  S S S S S S S S S S S  S

-------------------------------------
----------------------------------------


-------------------------------------
---------------------------------------o


-------------------------------------
----------------------------------------


-12-0-0-0-12-0-0-0-12-0-0-0-12-0-0-0-
-10-0-0-0-10-0-0-0-8-0-0-0-0-7-8-10-----


-------------------------------------
---------------------------------------o


-------------------------------------
----------------------------------------



  S S S S S S S S S S S S S S S S

------------------------------------

------------------------------------

------------------------------------

-1-0-0-0-3-0-0-0-1-0-0-0-3-0-0-0----

------------------------------------

------------------------------------



 S S S S S S S S S S S S S S S S

------------------------------------

------------------------------------

------------------------------------

------------------------------------

------------------------------------

-1-0-0-0-3-0-0-0-1-0-0-0-3-0-0-0----



   S S  S S  E  E  Q     Q       Q     S S  S S  E  E  Q

-----------------------------
-----------------------------

-----------------------------
-----------------------------

-----------------------------
-----------------------------

-----------------------------
-----------------------------

-----------------------------
-----------------------------

--0-0--0-0--0--0-------------
--------0-0--0-0--0--0-------



  E    E    E  E  E  E  E  E    E  E  E    E    E  E  E  E

-----------------------------
-----------------------------

-10---10---10-10-10-10-10-10-
-10-10-10---10---10-10-10-10-

--7----7----7--7--7--7--7--7-
--7--7--7----7----7--7--7--7-

--0----0----0--0--0--0--0--0-
--0--0--0----0----0--0--0--0-

-----------------------------
-----------------------------

-----------------------------
-----------------------------



   W                         W

-------------------------
-------------------------

-------------------------
-------------------------

-------------------------
-------------------------

-------------------------
-------------------------

-------------------------
-------------------------

-------------------------
-------------------------



  E  E  E  E  E  E  E  E    E  E  E  E  E  E  E  E

-------------------------
-------------------------

-11-11-11-11-11-11-11-11-
-11-11-11-11-11-11-11-11-

--8--8--8--8--8--8--8--8-
--8--8--8--8--8--8--8--8-

--0--0--0--0--0--0--0--0-
--0--0--0--0--0--0--0--0-

-------------------------
-------------------------

-------------------------
-------------------------



   S S  S S  E  E  Q     Q       Q     S S  S S  E  E  Q

-----------------------------
-----------------------------

-----------------------------
-----------------------------

-----------------------------
-----------------------------

-----------------------------
-----------------------------

-----------------------------
-----------------------------

--0-0--0-0--0--0-------------
--------0-0--0-0--0--0-------



  E    E    E  E  E  E  E  E    E  E  E    E    E  E  E  E

-----------------------------
-----------------------------

-10---10---10-10-10-10-10-10-
-10-10-10---10---10-10-10-10-

--7----7----7--7--7--7--7--7-
--7--7--7----7----7--7--7--7-

--0----0----0--0--0--0--0--0-
--0--0--0----0----0--0--0--0-

-----------------------------
-----------------------------

-----------------------------
-----------------------------



   W                         H           E  E  Q

-------------------------
--------------------------

-------------------------
--------------------------

-------------------------
--------------------------

-------------------------
--------------------------

-------------------------
-------------------[5]----

-------------------------
--------------5--8--------



  E  E  E  E  E  E  E  E    E  E  E  E  E  E  E   E

-------------------------
--------------------------

-11-11-11-11-11-11-11-11-
-13-13-13-13-13-13-13--13-

--8--8--8--8--8--8--8--8-
-10-10-10-10-10-10-10--10-

--0--0--0--0--0--0--0--0-
--0--0--0--0--0--0--0---0-

-------------------------
--------------------------

-------------------------
--------------------------



   S S  S S  E  E  Q     Q       Q     S S  S S  E  E  Q

-----------------------------
-----------------------------

-----------------------------
-----------------------------

-----------------------------
-----------------------------

-----------------------------
-----------------------------

-----------------------------
-----------------------------

--0-0--0-0--0--0-------------
--------0-0--0-0--0--0-------



  E    E    E  E  E  E  E  E    E  E  E    E    E  E  E  E

-----------------------------
-----------------------------

-10---10---10-10-10-10-10-10-
-10-10-10---10---10-10-10-10-

--7----7----7--7--7--7--7--7-
--7--7--7----7----7--7--7--7-

--0----0----0--0--0--0--0--0-
--0--0--0----0----0--0--0--0-

-----------------------------
-----------------------------

-----------------------------
-----------------------------



   W                         W

-------------------------
-------------------------

-------------------------
-------------------------

-------------------------
-------------------------

-------------------------
-------------------------

-------------------------
-------------------------

-------------------------
-------------------------



  E  E  E  E  E  E  E  E    E  E  E  E  E  E  E  E

-------------------------
-------------------------

-11-11-11-11-11-11-11-11-
-11-11-11-11-11-11-11-11-

--8--8--8--8--8--8--8--8-
--8--8--8--8--8--8--8--8-

--0--0--0--0--0--0--0--0-
--0--0--0--0--0--0--0--0-

-------------------------
-------------------------

-------------------------
-------------------------



   S S  S S  E  E  Q     Q       Q     S S  S S  E  E  Q

-----------------------------
-----------------------------

-----------------------------
-----------------------------

-----------------------------
-----------------------------

-----------------------------
-----------------------------

-----------------------------
-----------------------------

--0-0--0-0--0--0-------------
--------0-0--0-0--0--0-------



  E    E    E  E  E  E  E  E    E  E  E    E    E  E  E  E

-----------------------------
-----------------------------

-10---10---10-10-10-10-10-10-
-10-10-10---10---10-10-10-10-

--7----7----7--7--7--7--7--7-
--7--7--7----7----7--7--7--7-

--0----0----0--0--0--0--0--0-
--0--0--0----0----0--0--0--0-

-----------------------------
-----------------------------

-----------------------------
-----------------------------



   W                         H           E  E  E  E

-------------------------
-------------------------

-------------------------
-------------------------

-------------------------
-------------------------

-------------------------
-------------------------

-------------------------
-------------------------

-------------------------
--------------5--8--7--3-



  E  E  E  E  E  E  E  E    E  E  E  E  E  E  E  E

-------------------------
-------------------------

-11-11-11-11-11-11-11-11-
-13-13-13-13-13-13-13-13-

--8--8--8--8--8--8--8--8-
-10-10-10-10-10-10-10-10-

--0--0--0--0--0--0--0--0-
--0--0--0--0--0--0--0--0-

-------------------------
-------------------------

-------------------------
-------------------------



  H           Q.    Q.   Q    +W           +W

----------
----------------
------------
-------------

----------
-11----10-------
------------
-------------

----------
-------------7--
-(7)--------
-(7)---------

----------
----------------
------------
-------------

----------
----------------
------------
-------------

----------
----------------
------------
-------------



 W          +W               +W            H     H

----------
----------------
------------
-------------

----------
----------------
------------
-------------

-7--------
-(7)------------
-(7)--------
-------------

----------
----------------
------------
-------------

-5--------
-(5)------------
-(5)--------
--5-----8----

-0--------
-(0)------------
-(0)--------
--5-----8----



  +W            Q.    Q.   Q    +W           +W

------------
----------------
------------
-------------

------------
-11----10-------
------------
-------------

-(7)--------
-------------7--
-(7)--------
-(7)---------

------------
----------------
------------
-------------

------------
----------------
------------
-------------

------------
----------------
------------
-------------



  W           +W               +W            H     H

------------
----------------
------------
-------------

------------
----------------
------------
-------------

--7---------
-(7)------------
-(7)--------
-------------

------------
----------------
------------
-------------

--5---------
-(5)------------
-(5)--------
--5-----8----

--0---------
-(0)------------
-(0)--------
--5-----8----



  +W            Q.       Q.      Q    +W           +W

------------
----------------------
------------
-------------

------------
-11-------10----------
------------
-------------

-(7)--------
-------------------7--
-(7)--------
-(7)---------

------------
----------------------
------------
-------------

------------
----------------------
------------
-------------

------------
----------------------
------------
-------------



  W           +W                     +W            H     H

------------
----------------------
------------
-------------

------------
----------------------
------------
-------------

--7---------
-(7)------------------
-(7)--------
-------------

------------
----------------------
------------
-------------

--5---------
-(5)------------------
-(5)--------
--5-----8----

--0---------
-(0)------------------
-(0)--------
--5-----8----



  <            <            <         <            <

  TP           TP           TP        TP           TP    TP

  W           +H           +H        +W           +H     H

------------
----------------------
------------
-------------

------------
----------------------
------------
-------------

--2---------
-(2)b3========(2)r====
=(2)--------
-(2)----5----

------------
----------------------
------------
-------------

------------
----------------------
------------
-------------

------------
----------------------
------------
-------------



  +W               Q.    Q.    Q     +W                  +W

--------------
------------------
-------------------
--------------

--------------
--11----10--------
-------------------
--------------

-(7)----------
---------------7--
--(7)--------------
--(7)---------

--------------
------------------
-------------------
--------------

--------------
------------------
-------------------
--------------

--------------
------------------
-------------------
--------------



  W              +W                 +W                   H     H

--------------
------------------
-------------------
--------------

--------------
------------------
-------------------
--------------

--7-----------
--(7)-------------
--(7)--------------
--------------

--------------
------------------
-------------------
--------------

--5-----------
--(5)-------------
--(5)--------------
---5-----8----

--0-----------
--(0)-------------
--(0)--------------
---5-----8----



  TP     TP       TP          TP     TP     TP           TP

 +H      H       +H.          Q     +H      H           +H

--------------
------------------
-------------------
--------------

--------10----
-(10)---------13--
-(13)----13b15=====
=(13)---------

-(5)----------
------------------
-------------------
--------------

--------------
------------------
-------------------
--------------

--------------
------------------
-------------------
--------------

--------------
------------------
-------------------
--------------



  E E S S S S E E S S S S   E  E S S S S E E S S S S

-------------------------
--------------------------

-------------------------
--------------------------

-------------------------
--------------------------

-------------------------
--------------------------

-------------------------
--------------------------

-0-0-0-0-0-0-0-0-0-0-0-0-
-0--0-0-0-0-0-0-0-0-0-0-0-



 W                         H.               Q

-------------------------
--------------------------

-------------------------
--------------------------

-------------------------
------------------5-------

-7-----------------------
-8------------------------

-5-----------------------
-5----------------5-------

-------------------------
--------------------------



  E E S S S S E E S S S S   S S S S S S S S S S S S S S S S

-------------------------
------------------------------------

-------------------------
------------------------------------

-------------------------
------------------------------------

-------------------------
------------------------------------

-------------------------
------------------------------------

-0-0-0-0-0-0-0-0-0-0-0-0-
-7-0-0-0-8-0-0-0-7-0-0-0-8-0-0-0----



 W                         S S S S S S S S S S S S S S S S

-------------------------
------------------------------------

-------------------------
------------------------------------

-------------------------
------------------------------------

-7-----------------------
------------------------------------

-5-----------------------
------------------------------------

-------------------------
-7-0-0-0-8-0-0-0-7-0-0-0-8-0-0-0----



  E E S S S S E E S S S S   E  E S S S S E E S S S S

-------------------------
--------------------------

-------------------------
--------------------------

-------------------------
--------------------------

-------------------------
--------------------------

-------------------------
--------------------------

-0-0-0-0-0-0-0-0-0-0-0-0-
-0--0-0-0-0-0-0-0-0-0-0-0-



 W                         H.               Q

-------------------------
--------------------------

-------------------------
--------------------------

-------------------------
------------------5-------

-7-----------------------
-8------------------------

-5-----------------------
-5----------------5-------

-------------------------
--------------------------



  E E S S S S E E S S S S   S S S S S S S S S S S S S S S S

-------------------------
------------------------------------

-------------------------
------------------------------------

-------------------------
------------------------------------

-------------------------
-7-0-0-0-8-0-0-0-7-0-0-0-8-0-0-0----

-------------------------
------------------------------------

-0-0-0-0-0-0-0-0-0-0-0-0-
------------------------------------



 W                         S S S S S S S S S S S S S S S S

-------------------------
------------------------------------

-------------------------
------------------------------------

-------------------------
------------------------------------

-7-----------------------
-7-0-0-0-8-0-0-0-7-0-0-0-8-0-0-0----

-5-----------------------
------------------------------------

-------------------------
------------------------------------



  E E S S S S E E S S S S   E  E S S S S E E S S S S

-------------------------
--------------------------

-------------------------
--------------------------

-------------------------
--------------------------

-------------------------
--------------------------

-------------------------
--------------------------

-0-0-0-0-0-0-0-0-0-0-0-0-
-0--0-0-0-0-0-0-0-0-0-0-0-



 W                         H.               Q

-------------------------
--------------------------

-------------------------
--------------------------

-------------------------
------------------5-------

-7-----------------------
-8------------------------

-5-----------------------
-5----------------5-------

-------------------------
--------------------------



  E E S S S S E E S S S S   S S S S S S S S S S S S S S S S

-------------------------
------------------------------------

-------------------------
------------------------------------

-------------------------
------------------------------------

-------------------------
------------------------------------

-------------------------
------------------------------------

-0-0-0-0-0-0-0-0-0-0-0-0-
-7-0-0-0-8-0-0-0-7-0-0-0-8-0-0-0----



 W                         S S S S S S S S S S S S S S S S

-------------------------
------------------------------------

-------------------------
------------------------------------

-------------------------
------------------------------------

-7-----------------------
------------------------------------

-5-----------------------
------------------------------------

-------------------------
-7-0-0-0-8-0-0-0-7-0-0-0-8-0-0-0----



  E E S S S S E E S S S S   E  E S S S S E E S S S S

-------------------------
--------------------------

-------------------------
--------------------------

-------------------------
--------------------------

-------------------------
--------------------------

-------------------------
--------------------------

-0-0-0-0-0-0-0-0-0-0-0-0-
-0--0-0-0-0-0-0-0-0-0-0-0-



 W                         H.               Q

-------------------------
--------------------------

-------------------------
--------------------------

-------------------------
------------------5-------

-7-----------------------
-8------------------------

-5-----------------------
-5----------------5-------

-------------------------
--------------------------



  E E S S S S E E S S S S    S S S S  S S S S  S S S S  S S S S

-------------------------
----------------------------------------

-------------------------
----------------------------------------

-------------------------
----------------------------------------

-------------------------
-10-0-0-0-12-0-0-0-10-0-0-0-12-0-0-0----

-------------------------
----------------------------------------

-0-0-0-0-0-0-0-0-0-0-0-0-
----------------------------------------



 W                          S S S S  S S S S  S S S S  S S S S

-------------------------
----------------------------------------

-------------------------
----------------------------------------

-------------------------
----------------------------------------

-7-----------------------
--7-0-0-0--8-0-0-0--7-0-0-0--8-0-0-0----

-5-----------------------
----------------------------------------

-------------------------
----------------------------------------



   S S S S  S S S S  S S S S  S S S S

-------------------------------------

-------------------------------------

-------------------------------------

-12-0-0-0-10-0-0-0-12-0-0-0-13-0-0-0-

-------------------------------------

-------------------------------------



  S S S S  S S S S  S S S S  S S S S

-------------------------------------

-------------------------------------

-------------------------------------

--8-0-0-0--7-0-0-0--8-0-0-0-10-0-0-0-

-------------------------------------

-------------------------------------



   S S S S  S S S S  S S S S  S S S S    S S S S  S S S S  H

-------------------------------------
-------------------------

-------------------------------------
-------------------------

-------------------------------------
-------------------14----

-15-0-0-0-14-0-0-0-15-0-0-0-17-0-0-0-
-20-0-0-0-19-0-0-0-------

-------------------------------------
-------------------------

-------------------------------------
-------------------------



  S S S S  S S S S  S S S S  S S S S    S S S S  S S S S  H

-------------------------------------
-------------------------

-------------------------------------
-------------------------

-------------------------------------
-------------------------

-12-0-0-0-10-0-0-0-12-0-0-0-13-0-0-0-
-17-0-0-0-15-0-0-0-15----

-------------------------------------
-------------------------

-------------------------------------
-------------------------



   W                      E   E  E  E  E  E  Q

----------------------
-----------------------------

----------------------
-----------------------------

-17b19================
=17r-19-17----17-------------

----------------------
-----------19----17-17b19====

----------------------
-----------------------------

----------------------
-----------------------------



  E     E E E E E E E    E   E  E  E  E  E  E     E

----------------------
-----------------------------

----------------------
-----------------------------

----------------------
-----------------------------

--7-----0---0---0---0-
--8---0-----0-----0--------0-

----------------------
-----------------------------

----------0---0---0---
---------0-----0-----0-------



   +W                   E  E  E  E  E  E  E  E

--------------------
-------------------------

--------------------
-------------------------

--------------------
----------------------15-

-(17)---------------
-------------17----------

--------------------
-17-18-17-15----15-15----

--------------------
-------------------------



   E  E E E E E E E    E  E  E  E  E  E  E  E

--------------------
-------------------------

--------------------
-------------------------

--------------------
-------------------------

---7--0---0---0---0-
-------------------------

--------------------
-----------5-------------

--------0---0---0---
--0--3--7-----8--5--1--3-



                          
--3--

   +H.            E  E    E  E  E  E  E  E  E  E  E

----------------15-17-
-17-18-17----17-18-17----17-

----------------------
----------15----------15----

-(15)-----------------
----------------------------

----------------------
----------------------------

----------------------
----------------------------

----------------------
----------------------------



   E  E E E E E  E  E    E  E  E  E  E  E  E     E

----------------------
----------------------------

----------------------
----------------------------

----------------------
----------------------------

---7--0---0---0-----0-
-10--0-----0-----0--------0-

----------------------
----------------------------

--------0---0----0----
--------0-----0-----0-------



           
--3--

   +E   E  E  E  E  E  E  E  E    E  E  E  Q.       Q

-(17)-17----------------------
-------------------------

---------15-16-15----15-------
-------------------------

------------------17----------
-------------------------

---------------------------17-
----17-------------------

------------------------18----
-18----18-17------[17]---

------------------------------
-------------------------



   E   E  E  E  E  E  E     E    E  E  E  E  E E   E  E

------------------------------
-------------------------

------------------------------
-------------------------

------------------------------
-------------------------

---8---0-----0-----0--------0-
-------------------------

------------------------------
-----------5-------------

----------0-----0-----0-------
--0--3--7-----8-5---1--3-



   
--3--
                                  
--3--

   E  E  E  E  E  E  E  E  E    E  E  E  E  E  E  E  E  E

----------------------------
-------17-18-18-17-15----15-

----------------------------
----------------------18----

-14-15-14----14-15-14-15-17-
-15-14----------------------

----------17----------------
----------------------------

----------------------------
----------------------------

----------------------------
----------------------------



  E  E  E  E  E  E  E  E       E  E  E  E  E  E  E  E

----------------------------
----------------------------

----------------------------
----------------------------

----------------------------
----------------------------

--7--0-----0-----0-----0----
--8--0-----0-----0-----0----

----------------------------
----------------------------

--------0-----0-----0-------
--------0-----0-----0-------



   
--3--

   E  E  E  E  E  E  E  E  E    E  E  E  E  +H

----------------------------
-------------------------

-18-16-15-16----15-16-15----
-------------------------

-------------17----------17-
-15-14-12-15-(15)--------

----------------------------
-------------------------

----------------------------
-------------------------

----------------------------
-------------------------



  E  E  E  E  E  E  E  E       E  E  E  E   E  E E E

----------------------------
-------------------------

----------------------------
-------------------------

----------------------------
-------------------------

--7--0-----0-----0-----0----
-------------------------

----------------------------
-----------5-------------

--------0-----0-----0-------
--0--3--7------8--5-1-3--



   S  S  S  S  S  S  S  S  S  S  S  S  S  S  S  S

-------------------------------------------------

-------------------------------------------------

-12----------------------14----------------15----

----12-12-12-12-12-12-12----12-12-12-12-12----12-

-------------------------------------------------

-------------------------------------------------



  E     E     E     E     E     E     E     E

-------------------------------------------------

-------------------------------------------------

-------------------------------------------------

--7-----0-----------0-----------0-----------0----

-------------------------------------------------

--------------0-----------0-----------0----------



   S  S  S  S  S  S  S  S  S  S  S  S  S  S  S  S

---------------------------------------------------

-------13----------13----16-15-13----15-13---------

----------------------------------15-------15-14---

-12-12----12-12-12----12---------------------------

---------------------------------------------------

---------------------------------------------------



  E     E     E     E        E     E     E     E

---------------------------------------------------

---------------------------------------------------

---------------------------------------------------

-10-----0-----------0--------------0-----------0---

---------------------------------------------------

--------------0--------------0-----------0---------



   S  S  S  S  S  S  S  S  S  S  S  S  S  S  S  S

-------------------------------------------------

-------------------------------------------------

-12----------------------14----------------15----

----12-12-12-12-12-12-12----12-12-12-12-12----12-

-------------------------------------------------

-------------------------------------------------



  E     E     E     E     E     E     E     E

-------------------------------------------------

-------------------------------------------------

-------------------------------------------------

--8-----0-----------0-----------0-----------0----

-------------------------------------------------

--------------0-----------0-----------0----------



   S  S  S  S  S  S  S  S  S  S  S  S  S  S  S  S

---------------------------------------------------

----------13----16-15-13----15-13-------13---------

-------------------------15-------15-14----15-14---

-12-12-12----12------------------------------------

---------------------------------------------------

---------------------------------------------------



  E     E     E     E     E     E     E     E

---------------------------------------------------

---------------------------------------------------

---------------------------------------------------

---------------------------------------------------

--------------------5------------------------------

--0-----3-----7-----------8-----5-----1-----3------



                                      >
   W                                 +W

-20b22===========================
=(20)--------------------------

---------------------------------
-------------------------------

---------------------------------
-------------------------------

---------------------------------
-------------------------------

---------------------------------
-------------------------------

---------------------------------
-------------------------------



  S     S  S S  E  E  Q     Q        Q      S S  S S  E  E  Q

---------------------------------
-------------------------------

---------------------------------
-------------------------------

---------------------------------
-------------------------------

---------------------------------
-------------------------------

---------------------------------
-------------------------------

--0-----0--0-0--0--0-------------
----------0-0--0-0--0--0-------



  E        E    E  E  E  E  E  E     E   E  E    E    E  E  E  E

---------------------------------
-------------------------------

-10-------10---10-10-10-10-10-10-
--10--10-10---10---10-10-10-10-

--7--------7----7--7--7--7--7--7-
---7---7--7----7----7--7--7--7-

--0--------0----0--0--0--0--0--0-
---0---0--0----0----0--0--0--0-

---------------------------------
-------------------------------

---------------------------------
-------------------------------



   W                         W

-------------------------
-------------------------

-------------------------
-------------------------

-------------------------
-------------------------

-------------------------
-------------------------

-------------------------
-------------------------

-------------------------
-------------------------



  W                         W

-------------------------
-------------------------

-------------------------
-------------------------

-------------------------
-------------------------

-------------------------
-------------------------

-------------------------
-------------------------

-------------------------
-------------------------



  E  E  E  E  E  E  E  E    E  E  E  E  E  E  E  E

-------------------------
-------------------------

-11-11-11-11-11-11-11-11-
-11-11-11-11-11-11-11-11-

--8--8--8--8--8--8--8--8-
--8--8--8--8--8--8--8--8-

--0--0--0--0--0--0--0--0-
--0--0--0--0--0--0--0--0-

-------------------------
-------------------------

-------------------------
-------------------------



   S S  S S  E  E  Q     Q       Q     S S  S S  E  E  Q

-----------------------------
-----------------------------

-----------------------------
-----------------------------

-----------------------------
-----------------------------

-----------------------------
-----------------------------

-----------------------------
-----------------------------

--0-0--0-0--0--0-------------
--------0-0--0-0--0--0-------



  E    E    E  E  E  E  E  E    E  E  E    E    E  E  E  E

-----------------------------
-----------------------------

-10---10---10-10-10-10-10-10-
-10-10-10---10---10-10-10-10-

--7----7----7--7--7--7--7--7-
--7--7--7----7----7--7--7--7-

--0----0----0--0--0--0--0--0-
--0--0--0----0----0--0--0--0-

-----------------------------
-----------------------------

-----------------------------
-----------------------------



   W                         H           E  E  Q

-------------------------
--------------------------

-------------------------
--------------------------

-------------------------
--------------------------

-------------------------
--------------------------

-------------------------
-------------------[5]----

-------------------------
--------------5--8--------



  E  E  E  E  E  E  E  E    E  E  E  E  E  E  E   E

-------------------------
--------------------------

-11-11-11-11-11-11-11-11-
-13-13-13-13-13-13-13--13-

--8--8--8--8--8--8--8--8-
-10-10-10-10-10-10-10--10-

--0--0--0--0--0--0--0--0-
--0--0--0--0--0--0--0---0-

-------------------------
--------------------------

-------------------------
--------------------------



   S S  S S  E  E  Q     Q       Q     S S  S S  E  E  Q

-----------------------------
-----------------------------

-----------------------------
-----------------------------

-----------------------------
-----------------------------

-----------------------------
-----------------------------

-----------------------------
-----------------------------

--0-0--0-0--0--0-------------
--------0-0--0-0--0--0-------



  E    E    E  E  E  E  E  E    E  E  E    E    E  E  E  E

-----------------------------
-----------------------------

-10---10---10-10-10-10-10-10-
-10-10-10---10---10-10-10-10-

--7----7----7--7--7--7--7--7-
--7--7--7----7----7--7--7--7-

--0----0----0--0--0--0--0--0-
--0--0--0----0----0--0--0--0-

-----------------------------
-----------------------------

-----------------------------
-----------------------------



   W                         W

-------------------------
-------------------------

-------------------------
-------------------------

-------------------------
-------------------------

-------------------------
-------------------------

-------------------------
-------------------------

-------------------------
-------------------------



  E  E  E  E  E  E  E  E    E  E  E  E  E  E  E  E

-------------------------
-------------------------

-11-11-11-11-11-11-11-11-
-11-11-11-11-11-11-11-11-

--8--8--8--8--8--8--8--8-
--8--8--8--8--8--8--8--8-

--0--0--0--0--0--0--0--0-
--0--0--0--0--0--0--0--0-

-------------------------
-------------------------

-------------------------
-------------------------



   S S  S S  E  E  Q     Q       Q     S S  S S  E  E  Q

-----------------------------
-----------------------------

-----------------------------
-----------------------------

-----------------------------
-----------------------------

-----------------------------
-----------------------------

-----------------------------
-----------------------------

--0-0--0-0--0--0-------------
--------0-0--0-0--0--0-------



  E    E    E  E  E  E  E  E    E  E  E    E    E  E  E  E

-----------------------------
-----------------------------

-10---10---10-10-10-10-10-10-
-10-10-10---10---10-10-10-10-

--7----7----7--7--7--7--7--7-
--7--7--7----7----7--7--7--7-

--0----0----0--0--0--0--0--0-
--0--0--0----0----0--0--0--0-

-----------------------------
-----------------------------

-----------------------------
-----------------------------



   W                         H           E  E  E  E

-------------------------
-------------------------

-------------------------
-------------------------

-------------------------
-------------------------

-------------------------
-------------------------

-------------------------
-------------------------

-------------------------
--------------5--8--7--3-



  E  E  E  E  E  E  E  E    E  E  E  E  E  E  E  E

-------------------------
-------------------------

-11-11-11-11-11-11-11-11-
-13-13-13-13-13-13-13-13-

--8--8--8--8--8--8--8--8-
-10-10-10-10-10-10-10-10-

--0--0--0--0--0--0--0--0-
--0--0--0--0--0--0--0--0-

-------------------------
-------------------------

-------------------------
-------------------------



  W

------

------

------

-0----

-0----

-0----



 W

------

------

------

-0----

-0----

-0----





--------------------------------------------------------------------------------


Duration Legend
---------------
W - whole; H - half; Q - quarter; E - 8th; S - 16th; T - 32nd; X - 64th; a - acciaccatura
+ - note tied to previous; . - note dotted; .. - note double dotted
Uncapitalized letters represent notes that are staccato (1/2 duration)
Irregular groupings are notated above the duration line
Duration letters will always appear directly above the note/fret number it represents the
duration for.  Duration letters with no fret number below them represent rests.  Multi-
bar rests are notated in the form Wxn, where n is the number of bars to rest for.  Low
melody durations appear below the staff

Tablature Legend
----------------
 h   - hammer-on
 p   - pull-off
 b   - bend
 pb  - pre-bend
 r   - bend release (if no number after the r, then release immediately)
 /\  - slide into or out of (from/to "nowhere")
 s   - legato slide
 S   - shift slide
 - natural harmonic
[n]  - artificial harmonic
n(n) - tapped harmonic
 ~   - vibrato
 tr  - trill
 T   - tap
 TP  - trem. picking
 PM  - palm muting
\n/  - tremolo bar dip; n = amount to dip
 \n  - tremolo bar down
 n/  - tremolo bar up
/n\  - tremolo bar inverted dip
 =   - hold bend; also acts as connecting device for hammers/pulls
 <> - volume swell (louder/softer)
 x   - on rhythm slash represents muted slash
 o   - on rhythm slash represents single note slash

Misc Legend
-----------
 
  - bar

  - double bar

o - repeat start
o
 - repeat end
*
  - double bar (ending)
 :  - bar (freetime)
 $  - Segno
 &  - Coda
Tempo markers -  = BPM(8/16=s8/s16), where s8 = swing 8ths, s16 = swing 16ths



--------------------------------------------------------------------------------

** Generated using Power Tab Editor by Brad Larsen: The Official Power Tab Web Site

 


/
How To Set Up Higher Praise As Your Home Page
Copyright 1999, Higher Praise HigherPraise,Inc. All rights reserved. Terms of Use

Enjoy A Life Changing Experience

 
 
 
HigherPraise, Higher Praise, HigherPraise, Higher Praise, HigherPraise

Members..Sign Up. LogIn

 
 

Higher Praise Other Sites
 
 

HigherPraise.org/
Praise And Worship
www.higherpraise.org

HigherPraise.net
Christian Resources
www.higherpraise.net

HigherPraiseTube.com
Videos And Audios
www.higherpraisetube.com.


ChristianLyrics.org

Lyrics And Chrords
www.christianlyrics.org

ChristianChordsLyrics

Lyrics And Chrords
www.christianchordslyrics.com

ChristianChordLyrics

Lyrics And Chrords
www.christianchordlyrics.com

WorshipLyrics.org
10.000 Illustrations
www.worshiplyrics.org

WorshipLyrics.net
10.000 Illustrations
www.worshiplyrics.net

PraiseLyrics.com
PowerPoint Lyrics

www.praiselyrics.com

PraiseLyrics.org
PowerPoint Lyrics

www.praiselyrics.org

1GodTube.com
Chistian Videos

www1godtube..com

OneGodTube.com
Chistian Videos

www.onegodtube..com

 

/
Copyright 1999 - 2019, Higher Praise™ HigherPraise™,Inc. All rights reserved. Terms of Use