Higher Praise - Guitar Chords, Lyrics  GuitarTabs -  Praise nad Worship Music And Christian Songs

Higher Praise - Guitar Tabs, Guitar Chords, Lyrics
   Lyrics, Chords And Tabs
   Popular Lyrics Chords Tab
   Power Point Lyrics
   Praise & Worship Music
   Christian Music Videos
   15900 Videos & Audios
   Midi Files
   Worship Questions
   Christmas Chords, Lyrics
   Lyrics, Chords Tabs Rated

Sermon Outlines And Audio Sermons
   9344 Sermon Outlines
   N.T. Sermon Outlines
   O.T. Sermon Outlines
   Special Guest Outlines
   10.000 Illustrations
   Sunday School Studies
   Bible College Studies
   Greatest Preachers
   Bible Research Tools
Audio Sermons
   2895 Audio Sermons
   85 Sermon Videos
   291 Special Guests Serm

   Complete Audio Bible
Higher Praise Sunday School Teaching
   Children's NT Studies
   Children's OT Studies

   98 Children's Midis
   Gospel For Kids Movie
   Children's JESUS Film
Higher Praise Christian Video Library ,Videos
   Christian Television
   TBN TV Live
   15,000 Videos - HP Tube
   712 Youth Music Vids
  Christian Video Library
   Praise Videos #1 & #2
   85 Sermon Videos
   Prophecy Film -Videos
   JESUS Film -Video
   Childrens JESUS Film
   Gospel For Kids Movie
   Passion Of The Christ
   Noah, Sodom, Sinai, Ark
   Tsunami Videos Photos
News And Information
   Testimonies
   Submit Lyrics, Tabs, Serm
   10.000 Illustrations
   Bible College Course
   Clipart & Web Graphics
   Greatest Preachers
   Complete Talking Bible
   Christian Chat Rooms
   Links Church Resource
   HP Statement Of Faith
Download Clipart
   Audio Sermons
   Clipart & Web Graphics
   Church Administration
   Bible Study Software
   Screen Savers Software
   Verse A Day Software
   Educational Games
   Trade Center Photos

   Soft. Search Engine
Higher Praise News
   Current News
    Archived News
   Submit News
   Newsletter   Higher Praise Interact Prayer
   Prayer For All Needs
   
Submit Lyrics, Sermons
   
Contact Higher Praise
   
Advertising 
   Privacy Policy
//
He Died For You,  Click For Answer! This Is Who Jesus Is Video

'
 
0-9 A B C D E F G H I J K L M N O P Q R S T U V W X Y Z
.

//
Click For Printable...Version Of This File
 

Confined


by As I Lay Dying




KEY
+ = Feadback (with pitch above it)
* = Harmonic (with pitch above it)
~ = hold
. = Palm Mute
F = Full Rest
H = Half Rest
Q = Quarter Rest
E = Eigth Rest
V = Vibrato
/ = Upslide
\\ = Downslide
# = Tremello Picking

-- --

-- --

.- -.

.- -.
 = repeat

-- --

-- --


-xx--------------

---xx------------

-----xx----------

-------xx--------
 = Pick Scrape

---------xx------

-----------xx----




Confined - As I Lay Dying



Tempo = 172
Time = 4/4
Tuning = CGCFAD



Intro (0:00)
    
Guitars 1 and 2
      (0:10)                                x2

---
--------------------
-------------------

---
--------------------
-------------------

-A-
.-------------------
------------------.

-+-
.-------------------
------------------.

-0-
--------------------
-------------------

-0-
--00-0-0-0-0-0-00-0-
-0-0-0-0-00-0-0-0--

       .. . . . . . .. .   . . . . .. . . .



Guitar 1                                                                

-----------------
------------------
-----------------
-----------------

-----------------
------------------
-----------------
-----------------

-----------------
------------------
-----------------
-----------------

-----------------
------------------
-----------------
-----------------

-----5---7-------
-8---10---8-7-3-5-
-----5---7-------
-8---7---8-7-3-5-

-0-0---0---0-0-0-
---0----0---------
-0-0---0---0-0-0-
---0---0---------

                 
                  
                 
                 

Guitar 2         
                  
                 
                 

-----------------
------------------
-----------------
-----------------

-----------------
------------------
-----------------
-----------------

-----------------
------------------
-----------------
-----------------

-----------------
------------------
-----------------
-----------------

-0~~~~~~~~~~~~~~-
-~~~~~~~~~~~~~~~~-
-0~~~~~~~~~~~~~~-
-~~~~~~~~~~~~~~~-

-0~~~~~~~~~~~~~~-
-~~~~~~~~~~~~~~~~-
-0~~~~~~~~~~~~~~-
-~~~~~~~~~~~~~~~-

                                                                        



Guitar 1                                                                

-----------------
------------------
-----------------
-----------------

-----------------
------------------
-----------------
-----------------

-----------------
------------------
-----------------
-----------------

-----------------
------------------
-----------------
-----------------

-----5---7-------
-8---10---8-7-3-5-
-----5---7-------
-8---7---8-7-3-5-

-0-0---0---0-0-0-
---0----0---------
-0-0---0---0-0-0-
---0---0---------

                 
                  
                 
                 

Guitar 2         
                  
                 
                 

-----------------
------------------
-----------------
-xx--------------

-----------------
------------------
-----------------
---xx------------

-----------------
------------------
-----------------
-----xx----------

-----------------
------------------
-----------------
-------xx-----Q--

-0-0-0-0-0-0-0-0-
--0-0-0-0-0-0-0-0-
-0-0-0-0-0-0-0-0-
---------xx------

-0-0-0-0-0-0-0-0-
--0-0-0-0-0-0-0-0-
-0-0-0-0-0-0-0-0-
-----------xx----

                                                                        




Verse 1 (0:26)

Guitar 1                                                                x2

------------------
------------------
-----------------
------------------

------------------
------------------
-----------------
------------------

.-----------------
------------------
-----------------
-----------------.

.-----------------
------------------
-----------------
-3---2-----------.

------5---7-------
-8---10---8-7-3-5-
-----5---7-------
---------8-7-3-5--

--0-0---0---0-0-0-
---0----0---------
-0-0---0---0-0-0-
---3---3/---------

 . .   .   . . .  
  .    .          
 . .   .   . . . 
   .              

Guitar 2          
                  
                 
                  

------------------
------------------
-----------------
------------------

------------------
------------------
-----------------
------------------

.-----------------
------------------
-----------------
-----------------.

.-----------------
------------------
-----------------
-----------------.

--0-0-0-0-0-0-0-0-
--0-0-0-0-0-0-0-0-
-0-0-0-0-0-0-0-0-
------------------

--0-0-0-0-0-0-0-0-
--0-0-0-0-0-0-0-0-
-0-0-0-0-0-0-0-0-
-3-3-3-3/7-7-7-7--

  . . . . . . . .    . . . . . . . .   . . . . . . . .                    



Guitar 1                                                                

-----------------
------------------
-----------------
-----------------

-----------------
------------------
-----------------
-----------------

-----------------
------------------
-----------------
-----------------

-----------------
------------------
-----------------
-3---2-----------

-----5---7-------
-8---10---8-7-3-5-
-----5---7-------
---------8-7-3-5-

-0-0---0---0-0-0-
---0----0---------
-0-0---0---0-0-0-
---3---3/--------

. .   .   . . .  
  .    .          
 . .   .   . . . 
   .             

Guitar 2         
                  
                 
                 

-----------------
------------------
-----------------
-----------------

-----------------
------------------
-----------------
-----------------

-----------------
------------------
-----------------
-----------------

-----Q---E-------
-H----------------
-----Q---E-------
-H---------------

-0-0-------0-0-0-
------------------
-0-0-------0-0-0-
-----------------

-0-0-------0-0-0-
---------00000000-
-0-0-------0-0-0-
--------00000000-

 . .       . . .           ........   . .       . . .          ........ 



Guitar 1                                                        V           

-----------------
------------------
-----------------
---------------------

-----------------
------------------
-----------------
---------------------

-----------------
------------------
-----------------
---------G-----------

-----------------
------------------
-----------------
-3---2---*-----------

-----5---7-------
-8---10---8-7-3-5-
-----5---7-------
---------6-----------

-0-0---0---0-0-0-
---0----0---------
-0-0---0---0-0-0-
---3---3/------------

 . .   .   . . . 
   .    .         
 . .   .   . . . 
                     

Guitar 2         
                  
                 
                     

-----------------
------------------
-----------------
---------------------

-----------------
------------------
-----------------
---------------------

-----------------
------------------
-----------------
---------------------

-H---------------
-H----------------
------Q--E-------
---------------------

--------00000000-
---------00000000-
-0-0-------0-0-0-
---------------------

--------00000000-
---------00000000-
-0-0-------0-0-0-
-00-0-00-0-00-0-00-0-

        ........ 
         ........ 
 . .       . . . 
 .. . .. . .. . .. . 

Guitar 3         
                  
                 
         V           

-----------------
------------------
-----------------
---------------------

-----------------
------------------
-----------------
---------------------

-----------------
------------------
-----------------
---------Eb----------

-F---------------
-F----------------
-F---------------
-H-------*-----------

-----------------
------------------
-----------------
---------6-----------

-----------------
------------------
-----------------
---------------------

                                                                            



Guitar 1                                                                

-----------------
------------------
-----------------
-----------------

-----------------
------------------
-----------------
-----------------

-----------------
------------------
-----------------
-----------------

-----------------
------------------
-----------------
-3---2-----------

-----5---7-------
-8---10---8-7-3-5-
-----5---7-------
---------8-7-3-5-

-0-0---0---0-0-0-
---0----0---------
-0-0---0---0-0-0-
---3---3/--------

. .   .   . . .  
  .    .          
 . .   .   . . . 
   .             

Guitar 2         
                  
                 
                 

-----------------
------------------
-----------------
-----------------

-----------------
------------------
-----------------
-----------------

-----------------
------------------
-----------------
-----------------

-----Q---E-------
-H----------------
-----Q---E-------
-H---------------

-0-0-------0-0-0-
------------------
-0-0-------0-0-0-
-----------------

-0-0-------0-0-0-
---------00000000-
-0-0-------0-0-0-
--------00000000-

 . .       . . .           ........   . .       . . .          ........ 



Guitar 1                                                                

-----------------
------------------
-----------------
-----------------

-----------------
------------------
-----------------
-----------------

-----------------
------------------
-----------------
-----------------

-----------------
------------------
-----------------
-3---2-----------

-----5---7-------
-8---10---8-7-3-5-
-----5---7-------
---------8-7-3-0~

-0-0---0---0-0-0-
---0----0---------
-0-0---0---0-0-0-
---3---3/------0~

 . .   .   . . . 
   .    .         
 . .   .   . . . 
                 

Guitar 2         
                  
                 
                 

-----------------
------------------
-----------------
-----------------

-----------------
------------------
-----------------
-----------------

-----------------
------------------
-----------------
-----------------

-H---------------
-H----------------
------Q--E-------
-H---------------

--------00000000-
---------00000000-
-0-0-------0-0-0-
---------------0~

--------00000000-
---------00000000-
-0-0-------0-0-0-
--------000000-0~

        ........ 
         ........ 
 . .       . . . 
        ...... . 




Prechorus (0:59)

Guitars 1 and 2                                                             

-------------------
-------------------
------------------
-----------------

-------------------
-------------------
------------------
-----------------

-------------------
-------------------
------------------
-----------------

-------------------
-------------------
------------------
-----------------

~0---------------8-
---7------------10-
---8--------------
-----------------

~0-0-00-0-00-0-0---
-0---0-0-00-0-0----
-0---0-0-00-0-0-8-
-0-7-0-5-0-7-5-3-

   . .. . .. . .     .   . . .. . .      .   . . .. . .     .   .   .       



Guitar 1                                                                   

-------------------
------------------
------------------
-----------------

-------------------
------------------
------------------
-----------------

-------------------
------------------
------------------
-----------------

-------------------
--------------2/3-
---7--------------
-----------------

-0---------------8-
---7--------------
-5----------------
---------------8-

-0-0-00-0-00-0-0---
-0---0-0-00-0-----
-----0-0-00-0-0-8-
-0-7-0-5-0-7-5---

   . .. . .. . .   
 .   . . .. .     
     . . .. . .   
 .   .   .       

Guitar 2           
                  
                  
                 

-------------------
------------------
------------------
-----------------

-------------------
------------------
------------------
-----------------

-------------------
------------------
------------------
-----------------

-------------------
------------------
------------------
-----------------

-0---------------8-
--------------3/5-
---8--------------
---------------8-

-0-0-00-0-00-0-0---
-0---0-0-00-0-----
-7---0-0-00-0-0-8-
-0-7-0-5-0-7-5---

   . .. . .. . .     .   . . .. .           . . .. . .     .   .   .       



Guitars 1 and 2                                                                

--------------------
--------------------
-------------------
-----------------

--------------------
--------------------
-------------------
-----------------

--------------------
--------------------
-------------------
-----------------

--------------------
--------------------
-------------------
-----------------

------------------8-
---7-------------10-
---8---------------
-----------------

-0-00-0-00-0-00-0---
-0---0-00-0-00-0----
-0---0-00-0-00-0-8-
-0-7-0-5-0-7-5-3-

   .. . .. . .. .     .   . .. . .. .      .   . .. . .. .     .   .   .       



Guitar 1                                                                   

-------------------
------------------
------------------
-----------------

-------------------
------------------
------------------
-----------------

-------------------
------------------
------------------
-----------------

-------------------
--------------2/3-
---7--------------
-----------------

-0---------------8-
---7--------------
-5----------------
---------------8-

-0-0-00-0-00-0-0---
-0---0-0-00-0-----
-----0-0-00-0-0-8-
-0-7-0-5-0-7-5---

   . .. . .. . .   
 .   . . .. .     
     . . .. . .   
 .   .   .       

Guitar 2           
                  
                  
                 

-------------------
------------------
------------------
-----------------

-------------------
------------------
------------------
-----------------

-------------------
------------------
------------------
-----------------

-------------------
------------------
------------------
-----------------

-0---------------8-
--------------3/5-
---8--------------
---------------8-

-0-0-00-0-00-0-0---
-0---0-0-00-0-----
-7---0-0-00-0-0-8-
-0-7-0-5-0-7-5---

   . .. . .. . .     .   . . .. .           . . .. . .     .   .   .       




Chorus (1:21)

Guitar 1                                                               

-----------------
-----------------
-----------------
-----------------

-----------------
-----------------
-----------------
-----------------

-----------------
-----------------
-----------------
-----------------

-------------7---
-5---------5---7-
-------------7---
-5---------5---5-

-----5---8-------
-----5-8---------
-----5---8-------
-----5-8---------

-8-8---8---8---8-
---5-----5---5---
-0-0---0---0---0-
---0-----0---0---

 . .   .   .   . 
   .     .   .   
 . .   .   .   . 
   .     .   .   

Guitar 2         
                 
                 
                 

-----------------
-----------------
-----------------
-----------------

-----------------
-----------------
-----------------
-----------------

-----------------
-----------------
-----------------
-----------------

-----------------
-----------------
-----------------
-----------------

-8-8-8-8-8-8-7-7-
-5-5-5-5-5-5-5-7-
-0-0-0-0-0-0-0-0-
-0-0-0-0-0-0-0-0-

-8-8-8-8-8-8-7-7-
-5-5-5-5-5-5-5-7-
-0-0-0-0-0-0-0-0-
-0-0-0-0-0-0-0-0-

 . . . . . . . .   . . . . . . . .   . . . . . . . .   . . . . . . . . 



Guitar 1                                                               

-----------------
-----------------
-----------------
-----------------

-----------------
-----------------
-----------------
-----------------

-----------------
-----------------
-----------------
-----------------

---------3---7---
-5---------5---7-
-------------7---
-5---------5-----

-----5-----------
-----5-8---------
-----5---8-------
-----5-8-------5-

-3-3---3---3---3-
---5-----5---5---
-0-0---0---0---0-
---0-----0---0---

 . .   .   .   . 
   .     .   .   
 . .   .   .   . 
   .     .   .   

Guitar 2         
                 
                 
                 

-----------------
-----------------
-----------------
-----------------

-----------------
-----------------
-----------------
-----------------

-----------------
-----------------
-----------------
-----------------

-----------------
-----------------
-----------------
-----------------

-3-3-3-3-3-3-3-3-
-5-5-5-5-5-5-5-5-
-0-0-0-0-0-0-0-0-
-0-0-0-0-0-0-0-0-

-3-3-3-3-3-3-3-3-
-5-5-5-5-5-5-5-5-
-0-0-0-0-0-0-0-0-
-0-0-0-0-0-0-0-0-

 . . . . . . . . 
 . . . . . . . . 
 . . . . . . . . 
 . . . . . . . . 

Guitar 3         
                 
                 
                 

-----------------
-----------------
-----------------
-xx--------------
      

-----------------
-----------------
-----------------
---xx------------

-----------------
-----------------
-----------------
-----xx----------

-----------------
-----------------
-----------------
-------xx--------

-----------------
-----------------
-----------------
---------xx------

-----------------
-----------------
-----------------
-----------xx----

                                                                       



Guitar 1                                                               

-----------------
-----------------
-----------------
-----------------

-----------------
-----------------
-----------------
-----------------

-----------------
-----------------
-----------------
-----------------

-------------7---
-5---------5---7-
-------------7---
-5---------5---5-

-----5---8-------
-----5-8---------
-----5---8-------
-----5-8---------

-8-8---8---8---8-
---5-----5---5---
-0-0---0---0---0-
---0-----0---0---

 . .   .   .   . 
   .     .   .   
 . .   .   .   . 
   .     .   .   

Guitar 2         
                 
                 
                 

-----------------
-----------------
-----------------
-----------------

-----------------
-----------------
-----------------
-----------------

-----------------
-----------------
-----------------
-----------------

-----------------
-----------------
-----------------
-----------------

-8-8-8-8-8-8-7-7-
-5-5-5-5-5-5-5-7-
-0-0-0-0-0-0-0-0-
-0-0-0-0-0-0-0-0-

-8-8-8-8-8-8-7-7-
-5-5-5-5-5-5-5-7-
-0-0-0-0-0-0-0-0-
-0-0-0-0-0-0-0-0-

 . . . . . . . . 
 . . . . . . . . 
 . . . . . . . . 
 . . . . . . . . 

Guitar 3         
                 
                 
                 

-----------------
-----------------
-----------------
-----------------

-----------------
-----------------
-----------------
-----------------

-----------------
-----------------
-----------------
-----------------

-#---#---#---#---
-#---#---#---#---
-----------------
-----------------

-5---5---5---3---
-1---1---1---3---
-#---#---#---#---
-#---#---#---#---

-----------------
-----------------
-0---0---0---0---
-0---0---0---0---

                                                                       



Guitar 1                                                               

-----------------
-----------------
-----------------
-----------------

-----------------
-----------------
-----------------
-----------------

-----------------
-----------------
-----------------
-----------------

---------3---7---
-5---------5---7-
-------------7---
-5---------5-----

-----5-----------
-----5-8---------
-----5---8-------
-----5-8-------5-

-3-3---3---3---3-
---5-----5---5---
-0-0---0---0---0-
---0-----0---0---

 . .   .   .   . 
   .     .   .   
 . .   .   .   . 
   .     .   .   

Guitar 2         
                 
                 
                 

-----------------
-----------------
-----------------
-----------------

-----------------
-----------------
-----------------
-----------------

-----------------
-----------------
-----------------
-----------------

-----------------
-----------------
-----------------
-----------------

-3-3-3-3-3-3-3-3-
-5-5-5-5-5-5-5-5-
-0-0-0-0-0-0-0-0-
-0-0-0-0-0-0-0-0-

-3-3-3-3-3-3-3-3-
-5-5-5-5-5-5-5-5-
-0-0-0-0-0-0-0-0-
-0-0-0-0-0-0-0-0-

 . . . . . . . . 
 . . . . . . . . 
 . . . . . . . . 
 . . . . . . . . 

Guitar 3         
                 
                 
                 

-----------------
-----------------
-----------------
-----------------

-----------------
-----------------
-----------------
-----------------

-----------------
-----------------
-----------------
-----------------

-#---#---#---#---
-#---#---#---#---
-----------------
-----------------

-0---0---0---0---
-1---1---1---1---
-#---#---#---#---
-#---#---#---#---

-----------------
-----------------
-0---0---0---0---
-0---0---0---0---

                                                                       



Guitar 1                           

-----------------
-----------------

-----------------
-----------------

-----------------
-----------------

-----------------
-5---------5-----

-----5---8---7---
-----5-8-------5-

-8-8---8---8---8-
---5-----5---5---

 . .   .   .   . 
   .     .   .   

Guitar 2         
                 

-----------------
-----------------

-----------------
-----------------

-----------------
-----------------

-----------------
-----------------

-8-8-8-8-8-8-7-7-
-5-5-5-5-5-5-5-7-

-8-8-8-8-8-8-7-7-
-5-5-5-5-5-5-5-7-

                                   



Guitar 1                                                                

-----------------
------------------
-----------------
-----------------

-----------------
------------------
-----------------
-----------------

-----------------
------------------
-----------------
-----------------

-----------------
------------------
-----------------
-3---2-----------

-----5---7-------
-8---10---8-7-3-5-
-----5---7-------
---------8-7-3-5-

-0-0---0---0-0-0-
---0----0---------
-0-0---0---0-0-0-
---3---3/--------

 . .   .   . . . 
   .    .         
 . .   .   . . . 
   .             

Guitar 2         
                  
                 
                 

-----------------
------------------
-----------------
-----------------

-----------------
------------------
-----------------
-----------------

-----------------
------------------
-----------------
-----------------

-----------------
------------------
-----------------
-----------------

-0-0-0-0-0-0-0-0-
--0-0-0-0-0-0-0-0-
-0-0-0-0-0-0-0-0-
-----------------

-0-0-0-0-0-0-0-0-
--0-0-0-0-0-0-0-0-
-0-0-0-0-0-0-0-0-
-3-3-3-3/7-7-7-7-

 . . . . . . . .    . . . . . . . .   . . . . . . . .                   



Guitar 1                                                                

-----------------
------------------
-----------------
-----------------

-----------------
------------------
-----------------
-----------------

-----------------
------------------
-----------------
-----------------

-----------------
------------------
-----------------
-3---2-----------

-----5---7-------
-8---10---8-7-3-5-
-----5---7-------
---------8-7-3-5-

-0-0---0---0-0-0-
---0----0---------
-0-0---0---0-0-0-
---3---3/--------

 . .   .   . . . 
   .    .         
 . .   .   . . . 
   .             

Guitar 2         
                  
                 
                 

-----------------
------------------
-----------------
---------xx------

-----------------
------------------
-----------------
----------xx-----

-----------------
------------------
-----------------
-----------xx----

-----------------
------------------
-----------------
------------xx---

-0-0-0-0-0-0-0-0-
--0-0-0-0-0-0-0-0-
-0-0-0-0-0-0-0-0-
-------------xx--

-0-0-0-0-0-0-0-0-
--0-0-0-0-0-0-0-0-
-0-0-0-0-0-0-0-0-
-3-3-3-3/-----xx-

 . . . . . . . .    . . . . . . . .   . . . . . . . .                   




Verse 2 (1:57)

Guitar 1                                                                    x2

--------------------
------------------
-------------------
------------------

--------------------
------------------
-------------------
------------------

.-------------------
------------------
-------------------
-----------------.

.-------------------
------------------
-------------------
-3---2-----------.

-------5---7--------
-8---10---8-7-3-5-
------5---7--------
---------8-7-3-5--

--00-0---0---0-00-0-
---0----0---------
-00-0---0---0-00-0-
---3---3/---------

  .. .   .   . .. . 
   .    .         
 .. .   .   . .. . 
   .   .          

Guitar 2            
                  
                   
                  

--------------------
------------------
-------------------
------------------

--------------------
------------------
-------------------
------------------

.-------------------
------------------
-------------------
-----------------.

.-------------------
------------------
-------------------
-7---5-----------.

-------5---7--------
-8---10---8-7-3-5-
------5---7--------
---0---0-7-5-2-3--

--00-0---0---0-00-0-
---0----0---------
-00-0---0---0-00-0-
------------------

  .. .   .   . .. .     .    .           .. .   .   . .. .     .   .          




Chorus (2:08)

Guitar 1                                                               

-----------------
-----------------
-----------------
-----------------

-----------------
-----------------
-----------------
-----------------

-----------------
-----------------
-----------------
-----------------

-------------7---
-5---------5---7-
-------------7---
-5---------5---5-

-----5---8-------
-----5-8---------
-----5---8-------
-----5-8---------

-8-8---8---8---8-
---5-----5---5---
-0-0---0---0---0-
---0-----0---0---

 . .   .   .   . 
   .     .   .   
 . .   .   .   . 
   .     .   .   

Guitar 2         
                 
                 
                 

-----------------
-----------------
-----------------
-----------------

-----------------
-----------------
-----------------
-----------------

-----------------
-----------------
-----------------
-----------------

-----------------
-----------------
-----------------
-----------------

-8-8-8-8-8-8-7-7-
-5-5-5-5-5-5-5-7-
-0-0-0-0-0-0-0-0-
-0-0-0-0-0-0-0-0-

-8-8-8-8-8-8-7-7-
-5-5-5-5-5-5-5-7-
-0-0-0-0-0-0-0-0-
-0-0-0-0-0-0-0-0-

 . . . . . . . .   . . . . . . . .   . . . . . . . .   . . . . . . . . 



Guitar 1                                                               

-----------------
-----------------
-----------------
-----------------

-----------------
-----------------
-----------------
-----------------

-----------------
-----------------
-----------------
-----------------

---------3---7---
-5---------5---7-
-------------7---
-5---------5-----

-----5-----------
-----5-8---------
-----5---8-------
-----5-8-------5-

-3-3---3---3---3-
---5-----5---5---
-0-0---0---0---0-
---0-----0---0---

 . .   .   .   . 
   .     .   .   
 . .   .   .   . 
   .     .   .   

Guitar 2         
                 
                 
                 

-----------------
-----------------
-----------------
-----------------

-----------------
-----------------
-----------------
-----------------

-----------------
-----------------
-----------------
-----------------

-----------------
-----------------
-----------------
-----------------

-3-3-3-3-3-3-3-3-
-5-5-5-5-5-5-5-5-
-0-0-0-0-0-0-0-0-
-0-0-0-0-0-0-0-0-

-3-3-3-3-3-3-3-3-
-5-5-5-5-5-5-5-5-
-0-0-0-0-0-0-0-0-
-0-0-0-0-0-0-0-0-

 . . . . . . . . 
 . . . . . . . . 
 . . . . . . . . 
 . . . . . . . . 

Guitar 3         
                 
                 
                 

-----------------
-----------------
-----------------
-xx--------------
      

-----------------
-----------------
-----------------
---xx------------

-----------------
-----------------
-----------------
-----xx----------

-----------------
-----------------
-----------------
-------xx--------

-----------------
-----------------
-----------------
---------xx------

-----------------
-----------------
-----------------
-----------xx----

                                                                       



Guitar 1                                                               

-----------------
-----------------
-----------------
-----------------

-----------------
-----------------
-----------------
-----------------

-----------------
-----------------
-----------------
-----------------

-------------7---
-5---------5---7-
-------------7---
-5---------5---5-

-----5---8-------
-----5-8---------
-----5---8-------
-----5-8---------

-8-8---8---8---8-
---5-----5---5---
-0-0---0---0---0-
---0-----0---0---

 . .   .   .   . 
   .     .   .   
 . .   .   .   . 
   .     .   .   

Guitar 2         
                 
                 
                 

-----------------
-----------------
-----------------
-----------------

-----------------
-----------------
-----------------
-----------------

-----------------
-----------------
-----------------
-----------------

-----------------
-----------------
-----------------
-----------------

-8-8-8-8-8-8-7-7-
-5-5-5-5-5-5-5-7-
-0-0-0-0-0-0-0-0-
-0-0-0-0-0-0-0-0-

-8-8-8-8-8-8-7-7-
-5-5-5-5-5-5-5-7-
-0-0-0-0-0-0-0-0-
-0-0-0-0-0-0-0-0-

 . . . . . . . . 
 . . . . . . . . 
 . . . . . . . . 
 . . . . . . . . 

Guitar 3         
                 
                 
                 

-----------------
-----------------
-----------------
-----------------

-----------------
-----------------
-----------------
-----------------

-----------------
-----------------
-----------------
-----------------

-#---#---#---#---
-#---#---#---#---
-----------------
-----------------

-5---5---5---3---
-1---1---1---3---
-#---#---#---#---
-#---#---#---#---

-----------------
-----------------
-0---0---0---0---
-0---0---0---0---

                                                                       



Guitar 1                                                               

-----------------
-----------------
-----------------
-----------------

-----------------
-----------------
-----------------
-----------------

-----------------
-----------------
-----------------
-----------------

---------3---7---
-5---------5---7-
-------------7---
-5---------5-----

-----5-----------
-----5-8---------
-----5---8-------
-----5-8-------5-

-3-3---3---3---3-
---5-----5---5---
-0-0---0---0---0-
---0-----0---0---

 . .   .   .   . 
   .     .   .   
 . .   .   .   . 
   .     .   .   

Guitar 2         
                 
                 
                 

-----------------
-----------------
-----------------
-----------------

-----------------
-----------------
-----------------
-----------------

-----------------
-----------------
-----------------
-----------------

-----------------
-----------------
-----------------
-----------------

-3-3-3-3-3-3-3-3-
-5-5-5-5-5-5-5-5-
-0-0-0-0-0-0-0-0-
-0-0-0-0-0-0-0-0-

-3-3-3-3-3-3-3-3-
-5-5-5-5-5-5-5-5-
-0-0-0-0-0-0-0-0-
-0-0-0-0-0-0-0-0-

 . . . . . . . . 
 . . . . . . . . 
 . . . . . . . . 
 . . . . . . . . 

Guitar 3         
                 
                 
                 

-----------------
-----------------
-----------------
-----------------

-----------------
-----------------
-----------------
-----------------

-----------------
-----------------
-----------------
-----------------

-#---#---#---#---
-#---#---#---#---
-----------------
-----------------

-0---0---0---0---
-1---1---1---1---
-#---#---#---#---
-#---#---#---#---

-----------------
-----------------
-0---0---0---0---
-0---0---0---0---

                                                                       




Outro (2:33)

Guitars 1, 2, and 3                                                         

-------------------
------------------
-------------------
-----------------

-------------------
------------------
-------------------
-----------------

-------------------
------------------
-------------------
-----------------

-------------------
------------------
-------------------
-----------------

-0-0-00-0-00-0-0-0-
-0-0-0-0-0-0-00-0-
-0-0-00-0-00-0-0-8-
-----------------

-0-0-00-0-00-0-0-0-
-0-0-0-0-0-0-00-0-
-0-0-00-0-00-0-0-8-
-0-7-0-5-0-7-5-3-

 . . .. . .. . . .   . . . . . . .. .   . . .. . .. . .     .   .   .       



Guitars 1, 2, and 3                                                         

-------------------
------------------
-------------------
-----------------

-------------------
------------------
-------------------
-----------------

-------------------
------------------
-------------------
-----------------

-------------------
------------------
-------------------
-----------------

-0-0-00-0-00-0-0-0-
-0-0-0-0-0-0-00-0-
-0-0-00-0-00-0-0-8-
---------------8-

-0-0-00-0-00-0-0-0-
-0-0-0-0-0-0-00-0-
-0-0-00-0-00-0-0-8-
-0-7-0-5-0-7-5---

 . . .. . .. . . .   . . . . . . .. .   . . .. . .. . .     .   .   .       



Guitars 1 and 2                                                             

-------------------
------------------
-------------------
-----------------

-------------------
------------------
-------------------
-----------------

-------------------
------------------
-------------------
-----------------

-------------------
------------------
-------------------
-----------------

-0-0-00-0-00-0-0-8-
---7-0-0-0-0-0-10-
---8-00-0-00-0-0---
-----------------

-0-0-00-0-00-0-0---
-0---0-0-0-0-0----
-0---00-0-00-0-0-8-
-0-7-0-5-0-7-5-3-

 . . .. . .. . .     .   . . . . .      .   .. . .. . .     .   .   .       

Guitar 3                                                                    

-------------------
------------------
-------------------
-----------------

-------------------
------------------
-------------------
-----------------

-------------------
------------------
-------------------
-----------------

-------------------
------------------
-------------------
-----------------

-0-0-00-0-00-0-0-0-
-0-0-0-0-0-0-00-0-
-0-0-00-0-00-0-0-8-
-----------------

-0-0-00-0-00-0-0-0-
-0-0-0-0-0-0-00-0-
-0-0-00-0-00-0-0-8-
-0-7-0-5-0-7-5-3-

 . . .. . .. . . .   . . . . . . .. .   . . .. . .. . .     .   .   .       



Guitar 1                                                                    
   


-------------------
------------------
-------------------
-----------------
---


-------------------
------------------
-------------------
-----------------
---


-------------------
------------------
-------------------
-----------------
---


-------------------
------------------
-------------------
-----------------
---


-0-0-00-0-00-0-0-8-
---7-0-0-0-0-3/5--
----8\\0-0-00-0-0---
-----------------
-0-


-0-0-00-0-00-0-0---
-0---0-0-0-0------
--7---0-0-00-0-0-8-
-0-7-0-5-0-7-5-3-
-0-


 . . .. . .. . .   
 .   . . . .      
      . . .. . .   
 .   .   .       
   


Guitar 2           
                  
                   
                 
   


-------------------
------------------
-------------------
-----------------
---


-------------------
------------------
-------------------
-----------------
---


-------------------
------------------
-------------------
-----------------
---


-------------------
-------------2/3--
----7\\-------------
-----------------
---


-0-0-00-0-00-0-0-8-
---7-0-0-0-0------
--5---0-0-00-0-0---
-----------------
-0-


-0-0-00-0-00-0-0---
-0---0-0-0-0------
------0-0-00-0-0-8-
-0-7-0-5-0-7-5-3-
-0-


 . . .. . .. . .   
 .   . . . .      
      . . .. . .   
 .   .   .       
   


Guitar 3           
                  
                   
                 
   


-------------------
------------------
-------------------
-----------------
---


-------------------
------------------
-------------------
-----------------
---


-------------------
------------------
-------------------
-----------------
---


-------------------
------------------
-------------------
-----------------
---


-0-0-00-0-00-0-0-0-
-0-0-0-0-0-0-00-0-
-0-0-00-0-00-0-0-8-
-----------------
-0-


-0-0-00-0-00-0-0-0-
-0-0-0-0-0-0-00-0-
-0-0-00-0-00-0-0-8-
-0-7-0-5-0-7-5-8-
-0-


 . . .. . .. . . .   . . . . . . .. .   . . .. . .. . .     .   .   .       
   



 


/
How To Set Up Higher Praise As Your Home Page
Copyright 1999, Higher Praise HigherPraise,Inc. All rights reserved. Terms of Use

Enjoy A Life Changing Experience

 
 
 
HigherPraise, Higher Praise, HigherPraise, Higher Praise, HigherPraise

Members..Sign Up. LogIn

 
 

Higher Praise Other Sites
 
 

HigherPraise.org/
Praise And Worship
www.higherpraise.org

HigherPraise.net
Christian Resources
www.higherpraise.net

HigherPraiseTube.com
Videos And Audios
www.higherpraisetube.com.


ChristianLyrics.org

Lyrics And Chrords
www.christianlyrics.org

ChristianChordsLyrics

Lyrics And Chrords
www.christianchordslyrics.com

ChristianChordLyrics

Lyrics And Chrords
www.christianchordlyrics.com

WorshipLyrics.org
10.000 Illustrations
www.worshiplyrics.org

WorshipLyrics.net
10.000 Illustrations
www.worshiplyrics.net

PraiseLyrics.com
PowerPoint Lyrics

www.praiselyrics.com

PraiseLyrics.org
PowerPoint Lyrics

www.praiselyrics.org

1GodTube.com
Chistian Videos

www1godtube..com

OneGodTube.com
Chistian Videos

www.onegodtube..com

 

/
Copyright 1999 - 2019, Higher Praise™ HigherPraise™,Inc. All rights reserved. Terms of Use