Higher Praise - Guitar Chords, Lyrics  GuitarTabs -  Praise nad Worship Music And Christian Songs

Higher Praise - Guitar Tabs, Guitar Chords, Lyrics
   Lyrics, Chords And Tabs
   Popular Lyrics Chords Tab
   Power Point Lyrics
   Praise & Worship Music
   Christian Music Videos
   15900 Videos & Audios
   Midi Files
   Worship Questions
   Christmas Chords, Lyrics
   Lyrics, Chords Tabs Rated

Sermon Outlines And Audio Sermons
   9344 Sermon Outlines
   N.T. Sermon Outlines
   O.T. Sermon Outlines
   Special Guest Outlines
   10.000 Illustrations
   Sunday School Studies
   Bible College Studies
   Greatest Preachers
   Bible Research Tools
Audio Sermons
   2895 Audio Sermons
   85 Sermon Videos
   291 Special Guests Serm

   Complete Audio Bible
Higher Praise Sunday School Teaching
   Children's NT Studies
   Children's OT Studies

   98 Children's Midis
   Gospel For Kids Movie
   Children's JESUS Film
Higher Praise Christian Video Library ,Videos
   Christian Television
   TBN TV Live
   15,000 Videos - HP Tube
   712 Youth Music Vids
  Christian Video Library
   Praise Videos #1 & #2
   85 Sermon Videos
   Prophecy Film -Videos
   JESUS Film -Video
   Childrens JESUS Film
   Gospel For Kids Movie
   Passion Of The Christ
   Noah, Sodom, Sinai, Ark
   Tsunami Videos Photos
News And Information
   Testimonies
   Submit Lyrics, Tabs, Serm
   10.000 Illustrations
   Bible College Course
   Clipart & Web Graphics
   Greatest Preachers
   Complete Talking Bible
   Christian Chat Rooms
   Links Church Resource
   HP Statement Of Faith
Download Clipart
   Audio Sermons
   Clipart & Web Graphics
   Church Administration
   Bible Study Software
   Screen Savers Software
   Verse A Day Software
   Educational Games
   Trade Center Photos

   Soft. Search Engine
Higher Praise News
   Current News
    Archived News
   Submit News
   Newsletter   Higher Praise Interact Prayer
   Prayer For All Needs
   
Submit Lyrics, Sermons
   
Contact Higher Praise
   
Advertising 
   Privacy Policy
//
He Died For You,  Click For Answer! This Is Who Jesus Is Video

'
 
0-9 A B C D E F G H I J K L M N O P Q R S T U V W X Y Z
.

//
Click For Printable...Version Of This File
 

An Ocean Between Us


by As I Lay Dying




#----------------------------------PLEASE NOTE---------------------------------#
#This file is the author's own work and represents their interpretation of the #
#song. You may only use this file for private study, scholarship, or research. #
#------------------------------------------------------------------------------#



Alright this is "An Ocean Between Us" off of As I Lay Dying's upcoming album
It's incredibly fast, which means it's incredibly AWESOME!!!
and the new bassist is the shit!


So tell me what you think


and feel free to PM or email me if you want the powertab 

 

 

Gtr I (C G C F A D) - 'Untitled'
Gtr II (C G C F A D) - 'Untitled'


  Q=218
  Gtr I
  E E E E E E E E   E E E E E E E E   E E E E E E E E   E E E E E E E E

-----------------
-----------------
-----------------
-------------------

-----------------
-----------------
-----------------
-------------------

-----------------
-----------------
-----------------
-------------------

-----0-----0---0-
-----0-----------
-----0-----0---0-
-----0-------------

-------------0---
---------5p0-----
-------------0---
---------5p0-------

-0h7---0h7-------
-0h7---0-----8p5-
-0h7---0h7-------
-0h7---0-----8p5---



 Gtr II

 E E E E E E E E   E E E E E E E E   E E E E E E E E   E E E E E E E E

-----------------
-----------------
-----------------
-------------------

-----------------
-----------------
-----------------
-------------------

-----------------
-----------------
-----------------
-------------------

-----0-----0---0-
-----0-----------
-----0-----0---0-
-----0-------------

-------------0---
---------5p0-----
-------------0---
---------5p0-------

-0h7---0h7-------
-0h7---0-----8p5-
-0h7---0h7-------
-0h7---0-----8p5---



  E E E E E E E E   E E E E E E E E   E E E E E E E E   E E E E Q Q

-----------------
-----------------
-----------------
---------------

-----------------
-----------------
-----------------
---------------

-----------------
-----------------
-----------------
---------------

-----0-----0---0-
-----0-----------
-----0-----0---0-
-----0---------

-------------0---
---------5p0-----
-------------0---
---------0-----

-0h7---0h7-------
-0h7---0-----8p5-
-0h7---0h7-------
-0h7---0-0-----



 E E E E E E E E   E E E E E E E E   E E E E E E E E   E E E E Q Q

-----------------
-----------------
-----------------
---------------

-----------------
-----------------
-----------------
---------------

-----------------
-----------------
-----------------
---------------

-----0-----0---0-
-----0-----------
-----0-----0---0-
-----0---------

-------------0---
---------5p0-----
-------------0---
---------0-----

-0h7---0h7-------
-0h7---0-----8p5-
-0h7---0h7-------
-0h7---0-0-----



    E E E E E E E E   E E E E E E E E   E E E E E E E E   E E E E E E E E

------------------
-----------------
-----------------
-------------------


o-----------------
-----------------
-----------------
------------------o


------------------
-----------------
-----------------
-------------------


------0-----0---0-
-----0-----------
-----0-----0---0-
-----0-------------


o-------------0---
---------5p0-----
-------------0---
---------5p0------o


--0h7---0h7-------
-0h7---0-----8p5-
-0h7---0h7-------
-0h7---0-----8p5---



   E E E E E E E E   E E E E E E E E   E E E E E E E E   E E E E E E E E

------------------
-----------------
-----------------
-------------------


o-----------------
-----------------
-----------------
------------------o


------------------
-----------------
-----------------
-------------------


------0-----0---0-
-----0-----------
-----0-----0---0-
-----0-------------


o-------------0---
---------5p0-----
-------------0---
---------5p0------o


--0h7---0h7-------
-0h7---0-----8p5-
-0h7---0h7-------
-0h7---0-----8p5---



  E E E E E E E E   E E E E E E E E   E E E E E E E E   E E E E E E E E

-----------------
-----------------
-----------------
-------------------

-----------------
-----------------
-----------------
-------------------

-----------------
-----------------
-----------------
-------------------

-----0-----0---0-
-----0-----------
-----0-----0---0-
-----0-------------

-------------0---
---------5p0-----
-------------0---
---------5p0-------

-0h7---0h7-------
-0h7---0-----8p5-
-0h7---0h7-------
-0h7---0-----8p5---



 E E E E E E E E   E E E E E E E E   E E E E E E E E   E E E E E E E E

-----------------
-----------------
-----------------
-------------------

-----------------
-----------------
-----------------
-------------------

-----------------
-----------------
-----------------
-------------------

-----------------
-----------------
-----------------
-------------------

-----8-----8---8-
-----8---8p0-----
-----8-----8---8-
-----8---8p0-------

-0h7---0h7---7---
-0h7---0-----8p5-
-0h7---0h7---7---
-0h7---0-----8p5---



                                          PM  PM  PM    PM  PM

  E E E E E E E E   E E E E E E E E   E E E E E E E E   E E E E E E E E

-----------------
-----------------
-----------------
-----------------

-----------------
-----------------
-----------------
-----------------

-----------------
-----------------
-----------------
-----------------

-----0-----0---0-
-----0-----------
-----------------
---------2h3p2---

-------------0---
---------5p0-----
-0h1---1---3---5-
---8-----------3-

-0h7---0h7-------
-0h7---0-----8p5-
-----5---5---5---
-7---7-7---------



                                         PM  PM  PM    PM  PM

 E E E E E E E E   E E E E E E E E   E E E E E E E E   E E E E E E E E

-----------------
-----------------
-----------------
-----------------

-----------------
-----------------
-----------------
-----------------

-----------------
-----------------
-----------------
-----------------

-----------------
-----------------
-----------------
---------2h3p2---

-----8-----8---8-
-----8---8p0-----
-0h1---1---3---5-
---8-----------3-

-0h7---0h7---7---
-0h7---0-----8p5-
-----5---5---5---
-7---7-7---------



        PM------------------
               PM------------------

    E E E E E E E E   E E E E E E E E   E E E E E E E E   E E E E E E E E

------------------
-----------------
-----------------
------------------


o-----------------
-----------------
-----------------
------------------


------------------
-----------------
-----------------
------------------


--2p0-------------
---------2h3p2---
-2h3-------------
---------2h3p2----


o-----------------
---------------3-
-----------------
---------------3--


------0-0-0-0-0-0-
-0-0-0-0---------
-----0-0-0-0-0-0-
-0-0-0-0----------



       PM------------------
               PM------------------

   E E E E E E E E   E E E E E E E E   E E E E E E E E   E E E E E E E E

------------------
-----------------
-----------------
------------------


o-----------------
-----------------
-----------------
------------------


------------------
-----------------
-----------------
------------------


--2p0-------------
---------2h3p2---
-2h3-------------
---------2h3p2----


o-----------------
---------------3-
-----------------
---------------3--


------0-0-0-0-0-0-
-0-0-0-0---------
-----0-0-0-0-0-0-
-0-0-0-0----------



      PM------------------
               PM  PM  PM    PM  PM

  E E E E E E E E   E E E E E E E E   E E E E E E E E   E E E E E E E E

-----------------
-----------------
-----------------
------------------


-----------------
-----------------
-----------------
-----------------o


-----------------
-----------------
-----------------
------------------


-2p0-------------
---------2h3p2---
-----------------
---------2h3p2----


-----------------
---------------3-
-0h1---1---3---5-
---8-----------3-o


-----0-0-0-0-0-0-
-0-0-0-0---------
-----5---5---5---
-7---7-7----------



     PM------------------
               PM  PM  PM    PM  PM

 E E E E E E E E   E E E E E E E E   E E E E E E E E   E E E E E E E E

-----------------
-----------------
-----------------
------------------


-----------------
-----------------
-----------------
-----------------o


-----------------
-----------------
-----------------
------------------


-2p0-------------
---------2h3p2---
-----------------
---------2h3p2----


-----------------
---------------3-
-0h1---1---3---5-
---8-----------3-o


-----0-0-0-0-0-0-
-0-0-0-0---------
-----5---5---5---
-7---7-7----------



        PM------------------
               PM------------------

    E E E E E E E E   E E E E E E E E   E E E E E E E E   E E E E E E E E

------------------
-----------------
-----------------
----------------


o-----------------
-----------------
-----------------
----------------


------------------
-----------------
-----------------
----------------


--2p0-------------
---------2h3p2---
-2h3-------------
---------2h3p2--


o-----------------
---------------3-
-----------------
---------------3


------0-0-0-0-0-0-
-0-0-0-0---------
-----0-0-0-0-0-0-
-0-0-0-0--------



       PM------------------
               PM------------------

   E E E E E E E E   E E E E E E E E   E E E E E E E E   E E E E E E E E

------------------
-----------------
-----------------
----------------


o-----------------
-----------------
-----------------
----------------


------------------
-----------------
-----------------
----------------


--7p3-------------
---------5h7p5-3-
-5h7-------------
---------5h7p5-3


o-----------------
-----------------
-----------------
----------------


------0-0-0-0-0-0-
-0-0-0-0---------
-----0-0-0-0-0-0-
-0-0-0-0--------



      PM------------------
               PM  PM  PM    PM  PM

  E E E E E E E E   E E E E E E E E   E E E E E E E E   E E E E E E E E

-----------------
-----------------
-----------------
------------------


-----------------
-----------------
-----------------
-----------------o


-----------------
-----------------
-----------------
------------------


-2p0-------------
---------2h3p2---
-----------------
---------2h3p2----


-----------------
---------------3-
-0h1---1---3---5-
---8-----------3-o


-----0-0-0-0-0-0-
-0-0-0-0---------
-----5---5---5---
-7---7-7----------



     PM------------------
               PM  PM  PM    PM  PM

 E E E E E E E E   E E E E E E E E   E E E E E E E E   E E E E E E E E

-----------------
-----------------
-----------------
------------------


-----------------
-----------------
-----------------
-----------------o


-----------------
-----------------
-----------------
------------------


-7p3-------------
---------5h7p5-3-
-----------------
---------5h7p5-3--


-----------------
-----------------
-0h1---1---3---5-
---8-------------o


-----0-0-0-0-0-0-
-0-0-0-0---------
-----5---5---5---
-7---7-7----------



    PM----------------------------------------------------------------

    E E E E E E E E   E E E E E E E E   E E E E E E E E   E E E E E E E E

------------------
-----------------
-----------------
-----------------


o-----------------
-----------------
-----------------
----------------o


------------------
-----------------
-----------------
-----------------


------------------
-----------------
-----------------
-----------------


o-----------------
-----------------
-----------------
----------------o


--0-0-0-0-0-0-0-0-
-0-0-0-0-0-0-0-0-
-0-0-0-0-0-0-0-0-
-0-0-0-0-0-0-0-0-



   E E E E E E E E   E E E E E E E E   E E E E E E E E   E E E E E E E E

------------------
-----------------
-----------------
-----------------


o-----------------
-----------------
-----------------
----------------o


--7-7-7-7-7-7-7-7-
-7-7-7-7-7-7-7-7-
-7-7-7-7-7-7-7-7-
-7-7-7-7-7-7-7-7-


------------------
-----------------
-----------------
-----------------


o-5-5-5-5-5-5-5-5-
-5-5-5-5-5-5-5-5-
-5-5-5-5-5-5-5-5-
-5-5-5-5-5-5-5-5o


------------------
-----------------
-----------------
-----------------



  PM----
            PM   PM
            PM   PM
            PM   PM  PM  PM
  E E E E E E E E    E  E E E E E E E    E  E E E E E E E    E  E E E E E E E

-----------------
-----------------5-
-------------------
-------------------

---------6p5---5-
-----6-----6p5-----
-----6-----6p5---5-
-----6---8---6---5-

-7-7-7-7-----7---
--7----7-7-----7---
--7----7-7-----7---
--7----7---7---7---

-----------------
-------------------
-------------------
-------------------

-----------------
-------------------
-------------------
-------------------

-----------------
-------------------
-------------------
-------------------



 W                 +W                  +W                  +W

-----------------
-------------------
-------------------
-------------------

-----------------
-------------------
-------------------
-------------------

-----------------
-------------------
-------------------
-------------------

-----------------
-------------------
-------------------
-------------------

-0---------------
-(0)---------------
-(0)---------------
-(0)---------------

-0---------------
-(0)---------------
-(0)---------------
-(0)---------------



  PM----
            PM   PM
            PM   PM
            PM   PM  PM  PM
  E E E E E E E E    E  E E E E E E E    E  E E E E E E E    E  E E E E E E E

-----------------
-----------------5-
-------------------
-------------------

---------6p5---5-
-----6-----6p5-----
-----6-----6p5---5-
-----6---8---6---5-

-7-7-7-7-----7---
--7----7-7-----7---
--7----7-7-----7---
--7----7---7---7---

-----------------
-------------------
-------------------
-------------------

-----------------
-------------------
-------------------
-------------------

-----------------
-------------------
-------------------
-------------------



 W                 +W                  +W                  +W

-----------------
-------------------
-------------------
-------------------

-----------------
-------------------
-------------------
-------------------

-----------------
-------------------
-------------------
-------------------

-----------------
-------------------
-------------------
-------------------

-3---------------
-(3)---------------
-(3)---------------
-(3)---------------

-3---------------
-(3)---------------
-(3)---------------
-(3)---------------



  PM----
            PM   PM
            PM   PM
            PM   PM  PM  PM
  E E E E E E E E    E  E E E E E E E    E  E E E E E E E    E  E E E E E E E

-----------------
-----------------5-
-------------------
-------------------

---------6p5---5-
-----6-----6p5-----
-----6-----6p5---5-
-----6---8---6---5-

-7-7-7-7-----7---
--7----7-7-----7---
--7----7-7-----7---
--7----7---7---7---

-----------------
-------------------
-------------------
-------------------

-----------------
-------------------
-------------------
-------------------

-----------------
-------------------
-------------------
-------------------



 W                 +W                  +W                  +W

-----------------
-------------------
-------------------
-------------------

-----------------
-------------------
-------------------
-------------------

-----------------
-------------------
-------------------
-------------------

-----------------
-------------------
-------------------
-------------------

-8---------------
-(8)---------------
-(8)---------------
-(8)---------------

-8---------------
-(8)---------------
-(8)---------------
-(8)---------------



  PM----
            PM   PM
            PM   PM
            PM   PM  PM  PM
  E E E E E E E E    E  E E E E E E E    E  E E E E E E E    E  E E E E E E E

-----------------
-----------------5-
-------------------
-------------------

---------6p5---5-
-----6-----6p5-----
-----6-----6p5---5-
-----6---8---6---5-

-7-7-7-7-----7---
--7----7-7-----7---
--7----7-7-----7---
--7----7---7---7---

-----------------
-------------------
-------------------
-------------------

-----------------
-------------------
-------------------
-------------------

-----------------
-------------------
-------------------
-------------------



 W                 +W                  +W                  +W

-----------------
-------------------
-------------------
-------------------

-----------------
-------------------
-------------------
-------------------

-----------------
-------------------
-------------------
-------------------

-----------------
-------------------
-------------------
-------------------

-5---------------
-(5)---------------
-(5)---------------
-(5)---------------

-5---------------
-(5)---------------
-(5)---------------
-(5)---------------



    E E E E E E E E   E E E E E E E E   E E E E E E E E   E E E E E E E E

------------------
-----------------
-----------------
-------------------


o-----------------
-----------------
-----------------
------------------o


------------------
-----------------
-----------------
-------------------


------0-----0---0-
-----0-----------
-----0-----0---0-
-----0-------------


o-------------0---
---------5p0-----
-------------0---
---------5p0------o


--0h7---0h7-------
-0h7---0-----8p5-
-0h7---0h7-------
-0h7---0-----8p5---



   E E E E E E E E   E E E E E E E E   E E E E E E E E   E E E E E E E E

------------------
-----------------
-----------------
-------------------


o-----------------
-----------------
-----------------
------------------o


------------------
-----------------
-----------------
-------------------


------0-----0---0-
-----0-----------
-----0-----0---0-
-----0-------------


o-------------0---
---------5p0-----
-------------0---
---------5p0------o


--0h7---0h7-------
-0h7---0-----8p5-
-0h7---0h7-------
-0h7---0-----8p5---



  E E E E E E E E   E E E E E E E E   E E E E E E E E   E E E E E E E E

-----------------
-----------------
-----------------
-------------------

-----------------
-----------------
-----------------
-------------------

-----------------
-----------------
-----------------
-------------------

-----0-----0---0-
-----0-----------
-----0-----0---0-
-----0-------------

-------------0---
---------5p0-----
-------------0---
---------5p0-------

-0h7---0h7-------
-0h7---0-----8p5-
-0h7---0h7-------
-0h7---0-----8p5---



 E E E E E E E E   E E E E E E E E   E E E E E E E E   E E E E E E E E

-----------------
-----------------
-----------------
-------------------

-----------------
-----------------
-----------------
-------------------

-----------------
-----------------
-----------------
-------------------

-----------------
-----------------
-----------------
-------------------

-----8-----8---8-
-----8---8p0-----
-----8-----8---8-
-----8---8p0-------

-0h7---0h7---7---
-0h7---0-----8p5-
-0h7---0h7---7---
-0h7---0-----8p5---



                                          PM  PM  PM    PM  PM

  E E E E E E E E   E E E E E E E E   E E E E E E E E   E E E E E E E E

-----------------
-----------------
-----------------
-----------------

-----------------
-----------------
-----------------
-----------------

-----------------
-----------------
-----------------
-----------------

-----0-----0---0-
-----0-----------
-----------------
---------2h3p2---

-------------0---
---------5p0-----
-0h1---1---3---5-
---8-----------3-

-0h7---0h7-------
-0h7---0-----8p5-
-----5---5---5---
-7---7-7---------



                                         PM  PM  PM    PM  PM

 E E E E E E E E   E E E E E E E E   E E E E E E E E   E E E E E E E E

-----------------
-----------------
-----------------
-----------------

-----------------
-----------------
-----------------
-----------------

-----------------
-----------------
-----------------
-----------------

-----------------
-----------------
-----------------
---------2h3p2---

-----8-----8---8-
-----8---8p0-----
-0h1---1---3---5-
---8-----------3-

-0h7---0h7---7---
-0h7---0-----8p5-
-----5---5---5---
-7---7-7---------



        PM------------------
               PM------------------

    E E E E E E E E   E E E E E E E E   E E E E E E E E   E E E E E E E E

------------------
-----------------
-----------------
------------------


o-----------------
-----------------
-----------------
------------------


------------------
-----------------
-----------------
------------------


--2p0-------------
---------2h3p2---
-2h3-------------
---------2h3p2----


o-----------------
---------------3-
-----------------
---------------3--


------0-0-0-0-0-0-
-0-0-0-0---------
-----0-0-0-0-0-0-
-0-0-0-0----------



       PM------------------
               PM------------------

   E E E E E E E E   E E E E E E E E   E E E E E E E E   E E E E E E E E

------------------
-----------------
-----------------
------------------


o-----------------
-----------------
-----------------
------------------


------------------
-----------------
-----------------
------------------


--7p3-------------
---------5h7p5-3-
-5h7-------------
---------5h7p5-3--


o-----------------
-----------------
-----------------
------------------


------0-0-0-0-0-0-
-0-0-0-0---------
-----0-0-0-0-0-0-
-0-0-0-0----------



      PM------------------
               PM  PM  PM    PM  PM

  E E E E E E E E   E E E E E E E E   E E E E E E E E   E E E E E E E E

-----------------
-----------------
-----------------
------------------


-----------------
-----------------
-----------------
-----------------o


-----------------
-----------------
-----------------
------------------


-2p0-------------
---------2h3p2---
-----------------
---------2h3p2----


-----------------
---------------3-
-0h1---1---3---5-
---8-----------3-o


-----0-0-0-0-0-0-
-0-0-0-0---------
-----5---5---5---
-7---7-7----------



     PM------------------
               PM  PM  PM    PM  PM

 E E E E E E E E   E E E E E E E E   E E E E E E E E   E E E E E E E E

-----------------
-----------------
-----------------
------------------


-----------------
-----------------
-----------------
-----------------o


-----------------
-----------------
-----------------
------------------


-7p3-------------
---------5h7p5-3-
-----------------
---------5h7p5-3--


-----------------
-----------------
-0h1---1---3---5-
---8-------------o


-----0-0-0-0-0-0-
-0-0-0-0---------
-----5---5---5---
-7---7-7----------



    PM----------------------------------------------------------------

    E E E E E E E E   E E E E E E E E   E E E E E E E E   E E E E E E E E

------------------
-----------------
-----------------
-----------------


o-----------------
-----------------
-----------------
----------------o


------------------
-----------------
-----------------
-----------------


------------------
-----------------
-----------------
-----------------


o-----------------
-----------------
-----------------
----------------o


--0-0-0-0-0-0-0-0-
-0-0-0-0-0-0-0-0-
-0-0-0-0-0-0-0-0-
-0-0-0-0-0-0-0-0-



   E E E E E E E E   E E E E E E E E   E E E E E E E E   E E E E E E E E

------------------
-----------------
-----------------
-----------------


o-----------------
-----------------
-----------------
----------------o


--7-7-7-7-7-7-7-7-
-7-7-7-7-7-7-7-7-
-7-7-7-7-7-7-7-7-
-7-7-7-7-7-7-7-7-


------------------
-----------------
-----------------
-----------------


o-5-5-5-5-5-5-5-5-
-5-5-5-5-5-5-5-5-
-5-5-5-5-5-5-5-5-
-5-5-5-5-5-5-5-5o


------------------
-----------------
-----------------
-----------------



    PM----
            PM   PM

    E E E E E E E E    E  E E E E E E E

------------------
-----------------5-


o---------6p5---5-
-----6-----6p5-----


--7-7-7-7-----7---
--7----7-7-----7---


------------------
-------------------


o-----------------
-------------------


------------------
-------------------



   W                 +W

------------------
-------------------


o-----------------
-------------------


------------------
-------------------


------------------
-------------------


o-0---------------
-(0)---------------


--0---------------
-(0)---------------



   PM   PM
            PM   PM  PM  PM
   E  E E E E E E E    E  E E E E E E E

-------------------
--------------------

-----6-----6p5---5-
-----6---8---6---5--

--7----7-7-----7---
--7----7---7---7----

-------------------
--------------------

-------------------
--------------------

-------------------
--------------------



 +W                  +W

-------------------
--------------------

-------------------
--------------------

-------------------
--------------------

-------------------
--------------------

-(0)---------------
-(0)----------------

-(0)---------------
-(0)----------------



  PM----
            PM   PM
            PM   PM
            PM   PM  PM  PM
  E E E E E E E E    E  E E E E E E E    E  E E E E E E E    E  E E E E E E E

-----------------
-----------------5-
-------------------
-------------------

---------6p5---5-
-----6-----6p5-----
-----6-----6p5---5-
-----6---8---6---5-

-7-7-7-7-----7---
--7----7-7-----7---
--7----7-7-----7---
--7----7---7---7---

-----------------
-------------------
-------------------
-------------------

-----------------
-------------------
-------------------
-------------------

-----------------
-------------------
-------------------
-------------------



 W                 +W                  +W                  +W

-----------------
-------------------
-------------------
-------------------

-----------------
-------------------
-------------------
-------------------

-----------------
-------------------
-------------------
-------------------

-----------------
-------------------
-------------------
-------------------

-3---------------
-(3)---------------
-(3)---------------
-(3)---------------

-3---------------
-(3)---------------
-(3)---------------
-(3)---------------



  PM----
            PM   PM
            PM   PM
            PM   PM  PM  PM
  E E E E E E E E    E  E E E E E E E    E  E E E E E E E    E  E E E E E E E

-----------------
-----------------5-
-------------------
-------------------

---------6p5---5-
-----6-----6p5-----
-----6-----6p5---5-
-----6---8---6---5-

-7-7-7-7-----7---
--7----7-7-----7---
--7----7-7-----7---
--7----7---7---7---

-----------------
-------------------
-------------------
-------------------

-----------------
-------------------
-------------------
-------------------

-----------------
-------------------
-------------------
-------------------



 W                 +W                  +W                  +W

-----------------
-------------------
-------------------
-------------------

-----------------
-------------------
-------------------
-------------------

-----------------
-------------------
-------------------
-------------------

-----------------
-------------------
-------------------
-------------------

-8---------------
-(8)---------------
-(8)---------------
-(8)---------------

-8---------------
-(8)---------------
-(8)---------------
-(8)---------------



  PM----
            PM   PM

  E E E E E E E E    E  E E E E E E E

-----------------
-----------------5-

---------6p5---5-
-----6-----6p5-----

-7-7-7-7-----7---
--7----7-7-----7---

-----------------
-------------------

-----------------
-------------------

-----------------
-------------------



 W                 +W

-----------------
-------------------

-----------------
-------------------

-----------------
-------------------

-----------------
-------------------

-5---------------
-(5)---------------

-5---------------
-(5)---------------



   PM   PM
            PM   PM  PM  PM
   E  E E E E E E E    E  E E E E E E E

-------------------
--------------------


-----6-----6p5---5-
-----6---8---6---5-o


--7----7-7-----7---
--7----7---7---7----


-------------------
--------------------


-------------------
-------------------o


-------------------
--------------------



 +W                  +W

-------------------
--------------------


-------------------
-------------------o


-------------------
--------------------


-------------------
--------------------


-(5)---------------
-(5)---------------o


-(5)---------------
-(5)----------------



  PM------------
       PM--------
       PM--------------------------

  E E E E E E E E   E E E E E E E E   E E E E E E E E   E E E E E E E E

-----------------
-----------------
-----------------
-----------------

-----------------
-----------------
-----------------
-----------------

-----------------
-----------------
-----------------
-----------------

-----------------
-----------------
-----------------
-----------------

-0-0-0-0-0-0-0-0-
-3-5-0-0-0-0-0-0-
-3-5-0-0-0-0-0-0-
-0-0-0-0-0-0-0-0-

-0-0-0-0-0-0-0-0-
-----0-0-0-0-0-0-
-----0-0-0-0-0-0-
-0-0-0-0-0-0-0-0-



 W                 W                 W                 W

-----------------
-----------------
-----------------
-----------------

-----------------
-----------------
-----------------
-----------------

-----------------
-----------------
-----------------
-----------------

-----------------
-----------------
-----------------
-----------------

-----------------
-----------------
-----------------
-----------------

-----------------
-----------------
-----------------
-----------------



  PM------------
       PM--------
       PM------------------

  E E E E E E E E   E E E E E E E E   E E E E E E E E   E E E E  H

-----------------
-----------------
-----------------
----------------

-----------------
-----------------
-----------------
----------------

-----------------
-----------------
-----------------
----------------

-----------------
-----------------
-----------------
----------------

-0-0-0-0-0-0-0-0-
-3-5-0-0-0-0-0-0-
-3-5-0-0-0-0-0-0-
-0-0-0-0-[5]----

-0-0-0-0-0-0-0-0-
-----0-0-0-0-0-0-
-----0-0-0-0-0-0-
-0-0-0-0--------



 W                 W                 W                 W

-----------------
-----------------
-----------------
----------------

-----------------
-----------------
-----------------
----------------

-----------------
-----------------
-----------------
----------------

-----------------
-----------------
-----------------
----------------

-----------------
-----------------
-----------------
----------------

-----------------
-----------------
-----------------
----------------



    PM----------------------------------------------------------------

    E E E E E E E E   E E E E E E E E   E E E E E E E E   E E E E E E E E

------------------
-----------------
-----------------
----------------


o-----------------
-----------------
-----------------
----------------


------------------
-----------------
-----------------
----------------


------------------
-----------------
-----------------
----------------


o-0-0-0-0-0-0-0-0-
-0-0-0-0-0-0-0-0-
-0-0-0-0-0-0-0-0-
-0-0-0-0-0-0-0-0


--0-0-0-0-0-0-0-0-
-0-0-0-0-0-0-0-0-
-0-0-0-0-0-0-0-0-
-0-0-0-0-0-0-0-0



   PM----------------------------------------------------------------

   E E E E E E E E   E E E E E E E E   E E E E E E E E   E E E E E E E E

------------------
-----------------
-----------------
----------------


o-----------------
-----------------
-----------------
----------------


------------------
-----------------
-----------------
----------------


------------------
-----------------
-----------------
----------------


o-0-0-0-0-0-0-0-0-
-0-0-0-0-0-0-0-0-
-0-0-0-0-0-0-0-0-
-0-0-0-0-0-0-0-0


--0-0-0-0-0-0-0-0-
-0-0-0-0-0-0-0-0-
-0-0-0-0-0-0-0-0-
-0-0-0-0-0-0-0-0



  PM----------------------------

  E E E E E E E E   E E E E E E E E   +E  E E E E E E E   +E  E E E E E E E

-----------------
-----------------
-------------------
--------------------


-----------------
-----------------
-------------------
-------------------o


-----------------
-----------------
-------------------
--------------------


-----------------
-----------------
-------------------
--------------------


-0-0-0-0-0-0-0-0-
-0-0-0-0-0-0-0-3-
-(3)-3-3-3-3-3-3-5-
-(5)-5-5-5-5-5-5-5-o


-0-0-0-0-0-0-0-0-
-0-0-0-0-0-0-0-3-
-(3)-3-3-3-3-3-3-5-
-(5)-5-5-5-5-5-5-5--



 PM----------------------------

 E E E E E E E E   E E E E E E E E   +E  E E E E E E E   +E  E E E E E E E

-----------------
-----------------
-------------------
--------------------


-----------------
-----------------
-------------------
-------------------o


-----------------
-----------------
-------------------
--------------------


-----------------
-----------------
-------------------
--------------------


-0-0-0-0-0-0-0-0-
-0-0-0-0-0-0-0-3-
-(3)-3-3-3-3-3-3-5-
-(5)-5-5-5-5-5-5-5-o


-0-0-0-0-0-0-0-0-
-0-0-0-0-0-0-0-3-
-(3)-3-3-3-3-3-3-5-
-(5)-5-5-5-5-5-5-5--



     PM----------------------------------------
     E E  E E  E E  E E    E E  E E  E E  E E

----------------------
---------------------


o---------------------
---------------------


----------------------
---------------------


----------------------
---------------------


o--0-0--0-0--0-0--0-0-
--0-0--0-0--0-0--0-0-


---0-0--0-0--0-0--0-0-
--0-0--0-0--0-0--0-0-



    Q    Q    Q    Q      Q    Q    Q    Q

----------------------
---------------------


o-10------------------
-----------10--------


-------10--------10---
------10--------10---


------------12--------
-12------------------


o---------------------
---------------------


----------------------
---------------------



 --------------------------------------

   E E  E E  E E  E E    E E  E E  E E  E E

---------------------
--------------------

---------------------
--------------------

---------------------
--------------------

---------------------
--------------------

--0-0--0-0--0-0--0-0-
--0-0--0-0--0-0--0-0

--0-0--0-0--0-0--0-0-
--0-0--0-0--0-0--0-0



  Q    Q    Q    Q      Q    Q    Q    Q

---------------------
--------------------

---------------------
-10-----------------

------10--------10---
------10--------10--

-12--------12--------
-----------12-------

---------------------
--------------------

---------------------
--------------------



   E E  E E  E E  E E    E E  E E  E E  E E

---------------------
---------------------

---------------------
---------------------

---------------------
---------------------

---------------------
---------------------

--3-3--3-3--3-3--3-3-
--3-3--3-3--3-3--3-3-

--3-3--3-3--3-3--3-3-
--3-3--3-3--3-3--3-3-



  Q    Q    Q    Q      Q    Q    Q    Q

---------------------
---------------------

-10------------------
-----------10--------

------10--------10---
------10--------10---

-----------12--------
-12------------------

---------------------
---------------------

---------------------
---------------------



   E E  E E  E E  E E    E E  E E  E E  E E

---------------------
----------------------


---------------------
---------------------o


---------------------
----------------------


---------------------
----------------------


--5-5--5-5--5-5--5-5-
--5-5--5-5--5-5--5-5-o


--5-5--5-5--5-5--5-5-
--5-5--5-5--5-5--5-5--



  Q    Q    Q    Q      Q    Q    Q    Q

---------------------
----------------------


---------------------
-10------------------o


------10--------10---
------10--------10----


-12--------12--------
-----------12---------


---------------------
---------------------o


---------------------
----------------------



  PM----
            PM   PM
            PM   PM
            PM   PM  PM  PM
  E E E E E E E E    E  E E E E E E E    E  E E E E E E E    E  E E E E E E E

-----------------
-----------------5-
-------------------
-------------------

---------6p5---5-
-----6-----6p5-----
-----6-----6p5---5-
-----6---8---6---5-

-7-7-7-7-----7---
--7----7-7-----7---
--7----7-7-----7---
--7----7---7---7---

-----------------
-------------------
-------------------
-------------------

-----------------
-------------------
-------------------
-------------------

-----------------
-------------------
-------------------
-------------------



 W                 +W                  +W                  +W

-----------------
-------------------
-------------------
-------------------

-----------------
-------------------
-------------------
-------------------

-----------------
-------------------
-------------------
-------------------

-----------------
-------------------
-------------------
-------------------

-0---------------
-(0)---------------
-(0)---------------
-(0)---------------

-0---------------
-(0)---------------
-(0)---------------
-(0)---------------



  PM----
            PM   PM
            PM   PM
            PM   PM  PM  PM
  E E E E E E E E    E  E E E E E E E    E  E E E E E E E    E  E E E E E E E

-----------------
-----------------5-
-------------------
-------------------

---------6p5---5-
-----6-----6p5-----
-----6-----6p5---5-
-----6---8---6---5-

-7-7-7-7-----7---
--7----7-7-----7---
--7----7-7-----7---
--7----7---7---7---

-----------------
-------------------
-------------------
-------------------

-----------------
-------------------
-------------------
-------------------

-----------------
-------------------
-------------------
-------------------



 W                 +W                  +W                  +W

-----------------
-------------------
-------------------
-------------------

-----------------
-------------------
-------------------
-------------------

-----------------
-------------------
-------------------
-------------------

-----------------
-------------------
-------------------
-------------------

-3---------------
-(3)---------------
-(3)---------------
-(3)---------------

-3---------------
-(3)---------------
-(3)---------------
-(3)---------------



  PM----
            PM   PM
            PM   PM
            PM   PM  PM  PM
  E E E E E E E E    E  E E E E E E E    E  E E E E E E E    E  E E E E E E E

-----------------
-----------------5-
-------------------
-------------------

---------6p5---5-
-----6-----6p5-----
-----6-----6p5---5-
-----6---8---6---5-

-7-7-7-7-----7---
--7----7-7-----7---
--7----7-7-----7---
--7----7---7---7---

-----------------
-------------------
-------------------
-------------------

-----------------
-------------------
-------------------
-------------------

-----------------
-------------------
-------------------
-------------------



 W                 +W                  +W                  +W

-----------------
-------------------
-------------------
-------------------

-----------------
-------------------
-------------------
-------------------

-----------------
-------------------
-------------------
-------------------

-----------------
-------------------
-------------------
-------------------

-8---------------
-(8)---------------
-(8)---------------
-(8)---------------

-8---------------
-(8)---------------
-(8)---------------
-(8)---------------



  PM----
            PM   PM
            PM   PM
            PM   PM  PM  PM
  E E E E E E E E    E  E E E E E E E    E  E E E E E E E    E  E E E E E E E

-----------------
-----------------5-
-------------------
-------------------

---------6p5---5-
-----6-----6p5-----
-----6-----6p5---5-
-----6---8---6---5-

-7-7-7-7-----7---
--7----7-7-----7---
--7----7-7-----7---
--7----7---7---7---

-----------------
-------------------
-------------------
-------------------

-----------------
-------------------
-------------------
-------------------

-----------------
-------------------
-------------------
-------------------



 W                 +W                  +W                  +W

-----------------
-------------------
-------------------
-------------------

-----------------
-------------------
-------------------
-------------------

-----------------
-------------------
-------------------
-------------------

-----------------
-------------------
-------------------
-------------------

-5---------------
-(5)---------------
-(5)---------------
-(5)---------------

-5---------------
-(5)---------------
-(5)---------------
-(5)---------------



  PM----
            PM   PM
            PM   PM
            PM   PM  PM  PM
  E E E E E E E E    E  E E E E E E E    E  E E E E E E E    E  E E E E E E E

-----------------
-----------------5-
-------------------
-------------------

---------6p5---5-
-----6-----6p5-----
-----6-----6p5---5-
-----6---8---6---5-

-7-7-7-7-----7---
--7----7-7-----7---
--7----7-7-----7---
--7----7---7---7---

-----------------
-------------------
-------------------
-------------------

-----------------
-------------------
-------------------
-------------------

-----------------
-------------------
-------------------
-------------------



 PM----------
               PM--
               PM--
               PM----

 E E E E E E E E   +H        E E E E   +H        E E E E   +H        E E E E

-----------------
-------------------
-------------------
-------------------

-----------------
-------------------
-------------------
-------------------

-----------------
-------------------
-------------------
-------------------

-----------------
-------------------
-------------------
-------------------

-0-0-0-0-0-0-0-0-
-(0)-------0-0-0-0-
-(0)-------0-0-0-0-
-(0)-------0-0-0-0-

-0-0-0-0-0-0-0-0-
-(0)-------0-0-0-0-
-(0)-------0-0-0-0-
-(0)-------0-0-0-0-



  PM----
            PM   PM
            PM   PM
            PM   PM  PM  PM
  E E E E E E E E    E  E E E E E E E    E  E E E E E E E    E  E E E E E E E

-----------------
-----------------5-
-------------------
-------------------

---------6p5---5-
-----6-----6p5-----
-----6-----6p5---5-
-----6---8---6---5-

-7-7-7-7-----7---
--7----7-7-----7---
--7----7-7-----7---
--7----7---7---7---

-----------------
-------------------
-------------------
-------------------

-----------------
-------------------
-------------------
-------------------

-----------------
-------------------
-------------------
-------------------



 PM----------
               PM--
               PM--
               PM----

 E E E E E E E E   +H        E E E E   +H        E E E E   +H        E E E E

-----------------
-------------------
-------------------
-------------------

-----------------
-------------------
-------------------
-------------------

-----------------
-------------------
-------------------
-------------------

-----------------
-------------------
-------------------
-------------------

-3-3-3-3-3-3-3-3-
-(3)-------3-3-3-3-
-(3)-------3-3-3-3-
-(3)-------3-3-3-3-

-3-3-3-3-3-3-3-3-
-(3)-------3-3-3-3-
-(3)-------3-3-3-3-
-(3)-------3-3-3-3-



  PM----
            PM   PM
            PM   PM
            PM   PM  PM  PM
  E E E E E E E E    E  E E E E E E E    E  E E E E E E E    E  E E E E E E E

-----------------
-----------------5-
-------------------
-------------------

---------6p5---5-
-----6-----6p5-----
-----6-----6p5---5-
-----6---8---6---5-

-7-7-7-7-----7---
--7----7-7-----7---
--7----7-7-----7---
--7----7---7---7---

-----------------
-------------------
-------------------
-------------------

-----------------
-------------------
-------------------
-------------------

-----------------
-------------------
-------------------
-------------------



 PM----------
               PM--
               PM--
               PM----

 E E E E E E E E   +H        E E E E   +H        E E E E   +H        E E E E

-----------------
-------------------
-------------------
-------------------

-----------------
-------------------
-------------------
-------------------

-----------------
-------------------
-------------------
-------------------

-----------------
-------------------
-------------------
-------------------

-8-8-8-8-8-8-8-8-
-(8)-------8-8-8-8-
-(8)-------8-8-8-8-
-(8)-------8-8-8-8-

-8-8-8-8-8-8-8-8-
-(8)-------8-8-8-8-
-(8)-------8-8-8-8-
-(8)-------8-8-8-8-



  PM----
            PM   PM
            PM   PM
           PM  PM  PM  PM
  E E E E E E E E    E  E E E E E E E    E  E E E E E E E   E E E E E E E E

-----------------
-----------------5-
-------------------
-----------------

---------6p5---5-
-----6-----6p5-----
-----6-----6p5---5-
---6---8---6---5-

-7-7-7-7-----7---
--7----7-7-----7---
--7----7-7-----7---
-7---7---7---7---

-----------------
-------------------
-------------------
-----------------

-----------------
-------------------
-------------------
-----------------

-----------------
-------------------
-------------------
-----------------



 PM----------
               PM--
               PM----------------------

 E E E E E E E E   +H        E E E E   +H        E E E E   E E E E E E E E

-----------------
-------------------
-------------------
-----------------

-----------------
-------------------
-------------------
-----------------

-----------------
-------------------
-------------------
-----------------

-----------------
-------------------
-------------------
-----------------

-5-5-5-5-5-5-5-5-
-(5)-------5-5-5-5-
-(5)-------5-5-5-5-
-5-5-5-5-5-5-5-5-

-5-5-5-5-5-5-5-5-
-(5)-------5-5-5-5-
-(5)-------5-5-5-5-
-5-5-5-5-5-5-5-5-



  E E E E E E E E   E E E E E E E E   E E E E E E E E   E E E E E E E E

-----------------
-----------------
-----------------
-------------------

-----------------
-----------------
-----------------
-------------------

-----------------
-----------------
-----------------
-------------------

-----0-----0---0-
-----0-----------
-----0-----0---0-
-----0-------------

-------------0---
---------5p0-----
-------------0---
---------5p0-------

-0h7---0h7-------
-0h7---0-----8p5-
-0h7---0h7-------
-0h7---0-----8p5---



 E E E E E E E E   E E E E E E E E   E E E E E E E E   E E E E E E E E

-----------------
-----------------
-----------------
-------------------

-----------------
-----------------
-----------------
-------------------

-----------------
-----------------
-----------------
-------------------

-----0-----0---0-
-----0-----------
-----0-----0---0-
-----0-------------

-------------0---
---------5p0-----
-------------0---
---------5p0-------

-0h7---0h7-------
-0h7---0-----8p5-
-0h7---0h7-------
-0h7---0-----8p5---



                                                                PM----

  E E E E E E E E   E E E E E E E E   E E E E E E E E   E E E E E E E E

-----------------
-----------------
-----------------
-------------------

-----------------
-----------------
-----------------
-------------------

-----------------
-----------------
-----------------
-------------------

-----0-----0---0-
-----0-----------
-----0-----0---0-
-----0-------------

-------------0---
---------5p0-----
-------------0---
---------0-0-0-0---

-0h7---0h7-------
-0h7---0-----8p5-
-0h7---0h7-------
-0h7---0-0-0-0-0---



                                                               PM----

 E E E E E E E E   E E E E E E E E   E E E E E E E E   E E E E E E E E

-----------------
-----------------
-----------------
-------------------

-----------------
-----------------
-----------------
-------------------

-----------------
-----------------
-----------------
-------------------

-----0-----0---0-
-----0-----------
-----0-----0---0-
-----0-------------

-------------0---
---------5p0-----
-------------0---
---------0-0-0-0---

-0h7---0h7-------
-0h7---0-----8p5-
-0h7---0h7-------
-0h7---0-0-0-0-0---





--------------------------------------------------------------------------------


Duration Legend
---------------
W - whole; H - half; Q - quarter; E - 8th; S - 16th; T - 32nd; X - 64th; a - acciaccatura
+ - note tied to previous; . - note dotted; .. - note double dotted
Uncapitalized letters represent notes that are staccato (1/2 duration)
Irregular groupings are notated above the duration line
Duration letters will always appear directly above the note/fret number it represents the
duration for.  Duration letters with no fret number below them represent rests.  Multi-
bar rests are notated in the form Wxn, where n is the number of bars to rest for.  Low
melody durations appear below the staff

Tablature Legend
----------------
 h   - hammer-on
 p   - pull-off
 b   - bend
 pb  - pre-bend
 r   - bend release (if no number after the r, then release immediately)
 /\  - slide into or out of (from/to "nowhere")
 s   - legato slide
 S   - shift slide
 - natural harmonic
[n]  - artificial harmonic
n(n) - tapped harmonic
 ~   - vibrato
 tr  - trill
 T   - tap
 TP  - trem. picking
 PM  - palm muting
\n/  - tremolo bar dip; n = amount to dip
 \n  - tremolo bar down
 n/  - tremolo bar up
/n\  - tremolo bar inverted dip
 =   - hold bend; also acts as connecting device for hammers/pulls
 <> - volume swell (louder/softer)
 x   - on rhythm slash represents muted slash
 o   - on rhythm slash represents single note slash

Misc Legend
-----------
 
  - bar

  - double bar

o - repeat start
o
 - repeat end
*
  - double bar (ending)
 :  - bar (freetime)
 $  - Segno
 &  - Coda
Tempo markers -  = BPM(8/16=s8/s16), where s8 = swing 8ths, s16 = swing 16ths



--------------------------------------------------------------------------------

** Generated using Power Tab Editor by Brad Larsen: The Official Power Tab Web Site

 


/
How To Set Up Higher Praise As Your Home Page
Copyright 1999, Higher Praise HigherPraise,Inc. All rights reserved. Terms of Use

Enjoy A Life Changing Experience

 
 
 
HigherPraise, Higher Praise, HigherPraise, Higher Praise, HigherPraise

Members..Sign Up. LogIn

 
 

Higher Praise Other Sites
 
 

HigherPraise.org/
Praise And Worship
www.higherpraise.org

HigherPraise.net
Christian Resources
www.higherpraise.net

HigherPraiseTube.com
Videos And Audios
www.higherpraisetube.com.


ChristianLyrics.org

Lyrics And Chrords
www.christianlyrics.org

ChristianChordsLyrics

Lyrics And Chrords
www.christianchordslyrics.com

ChristianChordLyrics

Lyrics And Chrords
www.christianchordlyrics.com

WorshipLyrics.org
10.000 Illustrations
www.worshiplyrics.org

WorshipLyrics.net
10.000 Illustrations
www.worshiplyrics.net

PraiseLyrics.com
PowerPoint Lyrics

www.praiselyrics.com

PraiseLyrics.org
PowerPoint Lyrics

www.praiselyrics.org

1GodTube.com
Chistian Videos

www1godtube..com

OneGodTube.com
Chistian Videos

www.onegodtube..com

 

/
Copyright 1999 - 2019, Higher Praise™ HigherPraise™,Inc. All rights reserved. Terms of Use