Higher Praise - Guitar Chords, Lyrics  GuitarTabs -  Praise nad Worship Music And Christian Songs

Higher Praise - Guitar Tabs, Guitar Chords, Lyrics
   Lyrics, Chords And Tabs
   Popular Lyrics Chords Tab
   Power Point Lyrics
   Praise & Worship Music
   Christian Music Videos
   15900 Videos & Audios
   Midi Files
   Worship Questions
   Christmas Chords, Lyrics
   Lyrics, Chords Tabs Rated

Sermon Outlines And Audio Sermons
   9344 Sermon Outlines
   N.T. Sermon Outlines
   O.T. Sermon Outlines
   Special Guest Outlines
   10.000 Illustrations
   Sunday School Studies
   Bible College Studies
   Greatest Preachers
   Bible Research Tools
Audio Sermons
   2895 Audio Sermons
   85 Sermon Videos
   291 Special Guests Serm

   Complete Audio Bible
Higher Praise Sunday School Teaching
   Children's NT Studies
   Children's OT Studies

   98 Children's Midis
   Gospel For Kids Movie
   Children's JESUS Film
Higher Praise Christian Video Library ,Videos
   Christian Television
   TBN TV Live
   15,000 Videos - HP Tube
   712 Youth Music Vids
  Christian Video Library
   Praise Videos #1 & #2
   85 Sermon Videos
   Prophecy Film -Videos
   JESUS Film -Video
   Childrens JESUS Film
   Gospel For Kids Movie
   Passion Of The Christ
   Noah, Sodom, Sinai, Ark
   Tsunami Videos Photos
News And Information
   Testimonies
   Submit Lyrics, Tabs, Serm
   10.000 Illustrations
   Bible College Course
   Clipart & Web Graphics
   Greatest Preachers
   Complete Talking Bible
   Christian Chat Rooms
   Links Church Resource
   HP Statement Of Faith
Download Clipart
   Audio Sermons
   Clipart & Web Graphics
   Church Administration
   Bible Study Software
   Screen Savers Software
   Verse A Day Software
   Educational Games
   Trade Center Photos

   Soft. Search Engine
Higher Praise News
   Current News
    Archived News
   Submit News
   Newsletter   Higher Praise Interact Prayer
   Prayer For All Needs
   
Submit Lyrics, Sermons
   
Contact Higher Praise
   
Advertising 
   Privacy Policy
//
He Died For You,  Click For Answer! This Is Who Jesus Is Video

'
 
0-9 A B C D E F G H I J K L M N O P Q R S T U V W X Y Z
.

//
Click For Printable...Version Of This File
 

Unwinding Cable Car


by Anberlin




This dumb computer won't let me log on, but my username is guitar_hero_man. 
Anyway, here's the tab! Hope you like it!

This is meant for one guitar in drop-D.

Intro (0:00)

P.M.-----------------------------------------------
E---------------------------------------------------------

B---------------------------------------------------------

G---------------------------------------------------------

D---------------------------------------------------------

A--11-11-11-11-11-11-11-11-11-11-11-11-11-11--10-8--------

D---------------------------------------------------------

---------------------------------------------------
E---------------------------------------------------------

B---------------------------------------------------------

G---------------------------------------------------------

D---------------------------------------------------------

A--10-11-11-11-11-11-11-11-11-11-11-11-11-11-11-11--------

D---------------------------------------------------------

----------------------------------------------

E---------------------------------------------------------

B---------------------------------------------------------

G---------------------------------------------------------

D--11-11-11-11-10-10-10-10-8-8-8-8------------------------

A----------------------------------11-11-11-11-11h13------

D---------------------------------------------------------

        P.M.-------------------------

E---------------------------------------------------------

B---------------------------------------------------------

G---------------------------------------------------------

D---------------------------------------------------------

A-(13)--13-13-13-13-13-13-10-10-10-10-11p10-11p10---------

D---------------------------------------------------------


P.M.-----------------------------------------------
E---------------------------------------------------------

B---------------------------------------------------------

G---------------------------------------------------------

D---------------------------------------------------------

A--10-11-11-11-11-11-11-11-11-11-11-11-11-11--10-8--------

D---------------------------------------------------------

---------------------------------------------------
E---------------------------------------------------------

B---------------------------------------------------------

G---------------------------------------------------------

D---------------------------------------------------------

A--10-11-11-11-11-11-11-11-11-11-11-11-11-11-11-11--------

D---------------------------------------------------------

-----------(ease off P.M.)-------

E---------------------------------------------------------

B---------------------------------------------------------

G---------------------------------------------------------

D--11-11-11-11-10-10-10-10-8-8-8-8------------------------

A----------------------------------11-11-11-11-11h13------

D---------------------------------------------------------

 
E---------------------------------------------------------

B---------------------------------------------------------

G---------------------------------------------------------

D---------------------------------------------------------

A-(13)--13-13-13-13-13-13-10-10-10-10-11p10-11p10---------

D---------------------------------------------------------


E---------------------------------------------------------

B---------------------------------------------------------

G---------------------------------------------------------

D--11----11----11----11----11----11----11-----------------

A--11----11----11----11----11----11----11---10-8----------

D--11----11----11----11----11----11----11-----------------


Verse (0:22)

This is just a repeat of the intro, without any palm muting.

Pre-Chorus (0:42)

E----------------------------
-----------------------------

B----------------------------
-----------------------------

G----------------------------
-----------------------------

D--3-----3-------------------
--3-----3--------------------

A--3-----3-------------------
--3-----3--------------------

D--3-----3-------------------
--3-----3--------------------



Chorus (0:47)

E--------------------------
-------------------------------

B--------------------------
-------------------------------

G--------------------------
-------------------------------

D--3----3------------------
---3---3-----------------------

A--3----3------------------
---3---3-----------------------

D--3----3------------------
---3---3-----------------------


E--------------------------
-------------------------------

B--------------------------
-------------------------------

G--------------------------
-------------------------------

D--3--3----------x---x-----
--1---1------------------------

A--1--1----------x---x-----
--1---1------------------------

D--------------------------
--1---1------------------------


E--------------------------
-------------------------------

B--------------------------
-------------------------------

G--------------------------
-------------------------------

D--3--3--3--3--3--3--3--3--
--3--3--3--3--3--3--3--3-------

A--3--3--3--3--3--3--3--3--
--3--3--3--3--3--3--3--3-------

D--3--3--3--3--3--3--3--3--
--3--3--3--3--3--3--3--3-------


E--------------------------
-------------------------------

B--------------------------
-------------------------------

G--------------------------
-------------------------------

D--3--3--3--3--3--3--3--3--
--1--1--1--1--1--1--1--1--1----

A--1--1--1--1--1--1--1--1--
--1--1--1--1--1--1--1--1--1----

D--------------------------
--1--1--1--1--1--1--1--1--1----


E----------------------------------------------------------

B----------------------------------------------------------

G----------------------------------------------------------

D--(1)-----------------------------------------------------

A--(1)-----------------------------------------------------

D--(1)-----------------------------------------------------


2nd Verse (1:09)

E---------------------------------------

B--6-8-9-9-9-9-9-9-9-9-9-9-9-9-9-8-6----

G---------------------------------------

D---------------------------------------

A---------------------------------------

D---------------------------------------


E---------------------------------------

B--6-8-9-9-9-9-9-9-9-9-9-9-9-9-9-9-9----

G---------------------------------------

D---------------------------------------

A---------------------------------------

D---------------------------------------


E--------------------------------------------------------------------

B----------------------------------8-8-8h9-8-8-8h9-8-8-8h9-8-8-8h9---

G--8-8-8-8-6-6-6-6-8-8-8-8-8-8-8-8-----------------------------------

D--------------------------------------------------------------------

A--------------------------------------------------------------------

D--------------------------------------------------------------------


Play this twice.

Pre-Chorus (1:30)

E----------------------------
-----------------------------

B----------------------------
-----------------------------

G----------------------------
-----------------------------

D--3-----3-------------------
--3-----3--------------------

A--3-----3-------------------
--3-----3--------------------

D--3-----3-------------------
--3-----3--------------------





E----------------------------

B----------------------------

G----------------------------

D--1-------------------------

A--1-------------------------

D--1-------------------------


Chorus (1:37)

E--------------------------
-------------------------------

B--------------------------
-------------------------------

G--------------------------
-------------------------------

D--3----3------------------
---3---3---3-------------------

A--3----3------------------
---3---3---3-------------------

D--3----3------------------
---3---3---3-------------------


E--------------------------
-------------------------------

B--------------------------
-------------------------------

G--------------------------
-------------------------------

D--3--3----------x---x-----
--1---1------------------------

A--1--1----------x---x-----
--1---1------------------------

D--------------------------
--1---1------------------------


E--------------------------
-------------------------------

B--------------------------
-------------------------------

G--------------------------
-------------------------------

D--3--3--3--3--3--3--3--3--
--3--3--3--3--3--3--3--3-------

A--3--3--3--3--3--3--3--3--
--3--3--3--3--3--3--3--3-------

D--3--3--3--3--3--3--3--3--
--3--3--3--3--3--3--3--3-------


E--------------------------
-------------------------------

B--------------------------
-------------------------------

G--------------------------
-------------------------------

D--3--3--3--3--3--3--3--3--
--1--1--1--1--1--1--1--1--1----

A--1--1--1--1--1--1--1--1--
--1--1--1--1--1--1--1--1--1----

D--------------------------
--1--1--1--1--1--1--1--1--1----


Interlude (1:57)

2 bars of silence for a short bass fill here. On beat 4 play:

E----------

B----------

G----------

D----------

A----------

E--/15\----


Break (2:02)

E-------------------------------------------------

B-------------------------------------------------

G-------------------------------------------------

D-------------------------------------------------

A--------------3--0----------------3--0--0--------

D--3--3--0--3--------5--3--3--0--3----------------


E-------------------------------------------------

B-------------------------------------------------

G-------------------------------------------------

D-------------------------------------------------

A--------------3--0----------------3--0--0--------

D--3--3--0--3--------5--3--3--0--3----------------


E-------------------------------------------------

B-------------------------------------------------

G-------------------------------------------------

D-------------------------------------------------

A--------------1--0----------------1--0--0--------

D--1--1--0--1--------3--1--1--0--1----------------


E-------------------------------------------------

B-------------------------------------------------

G-------------------------------------------------

D-------------------------------------3*---5*-----

A--------------3--0----------------3--------------

D--3--3--0--3--------5--3--3--0--3----------------


Play break riff twice.

Pre-Chorus (2:22)

E--------------------
----------------------

B--------------------
----------------------

G--------------------
----------------------

D--3--3--------------
--3--3----------------

A--3--3--------------
--3--3----------------

E--3--3--------------
--3--3----------------


E--------------------
---------------------------------

B--------------------
---------------------------------

G--------------------
---------------------------------

D--3--3--------------
--3--x-x-3-x-x-3-x-x-3-3-3-3-----

A--3--3--------------
--3--x-x-3-x-x-3-x-x-3-3-3-3-----

E--3--3--------------
--3--x-x-3-x-x-3-x-x-3-3-3-3-----



Chorus (2:32)

E--------------------------
-------------------------------

B--------------------------
-------------------------------

G--------------------------
-------------------------------

D--3----3------------------
---3---3---3---3---------------

A--3----3------------------
---3---3---3---3---------------

D--3----3------------------
---3---3---3---3---------------


E--------------------------
-------------------------------

B--------------------------
-------------------------------

G--------------------------
-------------------------------

D--3--3----------x---x-----
--1---1------------------------

A--1--1----------x---x-----
--1---1------------------------

D--------------------------
--1---1------------------------


E--------------------------
-------------------------------

B--------------------------
-------------------------------

G--------------------------
-------------------------------

D--3----3------------------
---3---3---3---3---3----x--x---

A--3----3-----/15\---------
---3---3---3---3---3----x--x---

D--3----3-----/15\---------
---3---3---3---3---3----x--x---


E--------------------------
-------------------------------

B--------------------------
-------------------------------

G--------------------------
-------------------------------

D--3--3----------x---x-----
--1---1---1---1----------------

A--1--1----------x---x-----
--1---1---1---1----------------

D--------------------------
--1---1---1---1----------------


Outro (2:52)

E----------------------------------------------------------

B----------------------------------------------------------

G----------------------------------------------------------

D----------------------------------------------------------

A--------3--1--0--0----------------------------------------

D--3--3--------------5--6--8--8--6--5--6--6--5--5----------


E----------------------------------------------------------

B----------------------------------------------------------

G----------------------------------------------------------

D----------------------------------------------------------

A--------3--1--0--0----------------------------------------

D--3--3--------------5--6--8--8--6--5--6--6--5--5----------


E----------------------------------------------------------

B----------------------------------------------------------

G----------------------------------------------------------

D----------------------------------------------------------

A--------3--1--0--0----------------------------------------

D--0--0--------------5--6--8--8--6--5--6--6--5--5----------


E----------------------------------------------------------

B----------------------------------------------------------

G----------------------------------------------------------

D----------------------------------------------------------

A--------3--1--0--0----------------------------------------

D--3--3--------------5--6--8--8--6--5--6--6--5--5----------


Play until end.

Last Notes(3:12)
E--------------

B--------------

G--------------

D--3--3--------

A--3--3--------

E--3--3--------



Lyrics, just for those who care:

You want to watch us break, be the first to take us down
But your teeth are worn and there's no stopping us now
You got to be mental
Your speeches sound maligned
Take down this molotov of words, penned with you in mind

Speak for yourself, you paper tigers
You will crash where you stand
You've got a riot on your hands
Speak for yourself, you paper tigers
Too late to make demands when you've got a riot on your hands

Silent alarms are ringing, sounds of revolt draw near
A new united front that you will come to fear
We will hold together to become the change
Voice for the voiceless, with every common man engaged

Speak for yourself, you paper tigers
You will crash where you stand
You've got a riot on your hands
Speak for youself, you paper tigers
Too late to make demands, when you've got a riot...!

Ignite and watch us burn till every ember's turned
Mankind will feel inspired when we set your walls to fire

Speak for yourself, you paper tigers
You will crash where you stand
You've got a riot on your hands
Speak for yourself, you paper tigers
Too late to make demands, when you've got a riot on your hands
 


/
How To Set Up Higher Praise As Your Home Page
Copyright 1999, Higher Praise HigherPraise,Inc. All rights reserved. Terms of Use

Enjoy A Life Changing Experience

 
 
 
HigherPraise, Higher Praise, HigherPraise, Higher Praise, HigherPraise

Members..Sign Up. LogIn

 
 

Higher Praise Other Sites
 
 

HigherPraise.org/
Praise And Worship
www.higherpraise.org

HigherPraise.net
Christian Resources
www.higherpraise.net

HigherPraiseTube.com
Videos And Audios
www.higherpraisetube.com.


ChristianLyrics.org

Lyrics And Chrords
www.christianlyrics.org

ChristianChordsLyrics

Lyrics And Chrords
www.christianchordslyrics.com

ChristianChordLyrics

Lyrics And Chrords
www.christianchordlyrics.com

WorshipLyrics.org
10.000 Illustrations
www.worshiplyrics.org

WorshipLyrics.net
10.000 Illustrations
www.worshiplyrics.net

PraiseLyrics.com
PowerPoint Lyrics

www.praiselyrics.com

PraiseLyrics.org
PowerPoint Lyrics

www.praiselyrics.org

1GodTube.com
Chistian Videos

www1godtube..com

OneGodTube.com
Chistian Videos

www.onegodtube..com

 

/
Copyright 1999 - 2019, Higher Praise™ HigherPraise™,Inc. All rights reserved. Terms of Use