Higher Praise - Guitar Chords, Lyrics  GuitarTabs -  Praise nad Worship Music And Christian Songs

Higher Praise - Guitar Tabs, Guitar Chords, Lyrics
   Lyrics, Chords And Tabs
   Popular Lyrics Chords Tab
   Power Point Lyrics
   Praise & Worship Music
   Christian Music Videos
   15900 Videos & Audios
   Midi Files
   Worship Questions
   Christmas Chords, Lyrics
   Lyrics, Chords Tabs Rated

Sermon Outlines And Audio Sermons
   9344 Sermon Outlines
   N.T. Sermon Outlines
   O.T. Sermon Outlines
   Special Guest Outlines
   10.000 Illustrations
   Sunday School Studies
   Bible College Studies
   Greatest Preachers
   Bible Research Tools
Audio Sermons
   2895 Audio Sermons
   85 Sermon Videos
   291 Special Guests Serm

   Complete Audio Bible
Higher Praise Sunday School Teaching
   Children's NT Studies
   Children's OT Studies

   98 Children's Midis
   Gospel For Kids Movie
   Children's JESUS Film
Higher Praise Christian Video Library ,Videos
   Christian Television
   TBN TV Live
   15,000 Videos - HP Tube
   712 Youth Music Vids
  Christian Video Library
   Praise Videos #1 & #2
   85 Sermon Videos
   Prophecy Film -Videos
   JESUS Film -Video
   Childrens JESUS Film
   Gospel For Kids Movie
   Passion Of The Christ
   Noah, Sodom, Sinai, Ark
   Tsunami Videos Photos
News And Information
   Testimonies
   Submit Lyrics, Tabs, Serm
   10.000 Illustrations
   Bible College Course
   Clipart & Web Graphics
   Greatest Preachers
   Complete Talking Bible
   Christian Chat Rooms
   Links Church Resource
   HP Statement Of Faith
Download Clipart
   Audio Sermons
   Clipart & Web Graphics
   Church Administration
   Bible Study Software
   Screen Savers Software
   Verse A Day Software
   Educational Games
   Trade Center Photos

   Soft. Search Engine
Higher Praise News
   Current News
    Archived News
   Submit News
   Newsletter   Higher Praise Interact Prayer
   Prayer For All Needs
   
Submit Lyrics, Sermons
   
Contact Higher Praise
   
Advertising 
   Privacy Policy
//
He Died For You,  Click For Answer! This Is Who Jesus Is Video

'
 
0-9 A B C D E F G H I J K L M N O P Q R S T U V W X Y Z
.

//
Click For Printable...Version Of This File
 

End Is Here


by Alter Bridge




Band- Alter Bridge
Song- Down To My Last

 F#m                Dsus2/A
      2 4 4 2 2 2          5 5 7 7 5 5

Gtr I (Eb Ab Db Gb Bb Eb) - 'Distortion'
Gtr II (Eb Ab Db Gb Bb Eb) - 'Electric'
Gtr III (Eb Ab Db Gb Bb Eb) - 'Acoustic'
Gtr IV (Eb Ab Db Gb Bb Eb) - 'Electric'

 Intro
  Q=75
            A
 1/4       4/4
  Gtr I
  S S S S    Q   E  S  S  S  S  S  S  +S   S  S  S

---------
----------------------------------------

---------
----------------------------------------

---------
----------------------------------------

---9-9-9-
-11--11-11-12-12h14-14-12-(12)-11-11-12-

---0-0-0-
--0---0--0--0--0-----0--0--(0)--0--0--0-

---------
----------------------------------------



 Gtrs II, III

 S S S S    Q   E  S  S  Q            S   S  S  S

---------
--------------------------------------0-

-------0-
--2---2--2--2--2------------2---2--2--0-

---x-x-0-
--2---2--2--2--2------------2---2--2--1-

---x-x-0-
--2---2--2--2--2------------2---2--2----

---x-x-0-
--0---0--0--0--0------------0---0--0----

---------
----------------------------------------



  E
   Q   E  S  S  S  S  S  S  +S   S  E

--------------------------------------

--------------------------------------

--------------------------------------

-----------------------------------0--

-14--14-11-12-12h14-14-12-(12)-11--0--

--0---0--0--0--0-----0--0--(0)--0-----



  Q   E  S  S  E     S  S  +S   E.

--0---0--0--0--0-----0--0--(0)--0-----

--0---0--0--0--0-----0--0--(0)--0-----

--1---1--1--1--1-----1--1--(1)--1-----

--2---2--2--2--2-----2--2--(2)--2-----

--2---2--2--2--2-----2--2--(2)--2-----

--0---0--0--0--0-----0--0--(0)--0-----



  D/A
                          
------5-------

   Q   E  S S  S  S S  S  T  T  T     T  T  T  T  T  T

------------------------------------------------------

------------------------------------------------------

-11--11-11-9--9--9-9-11-11h12h14p===12p11-------------

--0---0--0-0--0--0-0----------------------14p12p11----

--0---0--0-0--0--0-0-------------------------------14-

------------------------------------------------------



  Q   E  S S +S  E    S  S       E.

--2---2--2-2-(2)-2----2--2-------2--------------------

--3---3--3-3-(3)-3----3--3-------3--------------------

--2---2--2-2-(2)-2----2--2-------2--------------------

--0---0--0-0-(0)-0----0--0-------0--------------------

--0---0--0-0-(0)-0----0--0-------0--------------------

------------------------------------------------------



  A         Asus4
   Q     E  S S +Q      S S     +S  S

-------------------------------------


-------------------------------------


-------------------------------------


-11----11--9-9-(9)-----7-9b10==(9)r9-


--0-----0--0-0-(0)-----0-0-----(0)---


-------------------------------------



  E. S  E.   S +S  S Q          E

-------------------------------------


--2--2--2----3-(3)-3-3---------------


--2--2--2----2-(2)-2-2---------------


--2--2--2----2-(2)-2-2----------0----


--0--0--0----0-(0)-0-0----------0----


-------------------------------------



 Verse
  A         Asus4         A        E                Esus4            E
   >
   W                                +Q         H                   Q

--------------------------------
------------------------------------------

--------------------------------
------------------------------------------

--------------------------------
------------------------------------------

-11-----------------------------
-(11)-------------------------------------

--0-----------------------------
--(0)-------------------------------------

--------------------------------
------------------------------------------



  Q   E  S  S  +E.  S  S  S S S     E   S  S  E  S  S  +E   S  S  S  S S S

--------------------------------
------------------------------------------

--------------------------------
------------------------------------------

--------------------------------
------------------------------------------

-11--11-11-12-(12)-12-12-11-----
------------------------------------------

--0---0--0--0--(0)--0--0--0-0-0-
--11--11-11-11-11-12-(12)-12-12-12-11-----

--------------------------------
---0---0--0--0--0--0--(0)--0--0--0--0-0-0-



  D/A                           A         Asus4
  Gtrs II, III
   Q   E  S S +E  S S S S S S    Q   E  S  S  +E   S  S  S  S S S

-----------------------------
-----------------------------------

-----------------------------
-----------------------------------

-11--11-11-9-(9)-9-9-9s7-----
-----------------------------------

--0---0--0-0-(0)-0-0-0-------
-11--11-11-12-(12)-12-12-12-12-7-9-

--0---0--0-0-(0)-0-0-0---0-0-
--0---0--0--0--(0)--0--0--0--0-0-0-

-------------------------0-0-
-----------------------------------



  A           Asus4            A        E            Esus4            E
   E. S  E  S  S  +E   S  S  S  S S S    E.  S  E  S  S  +S   E  S  S  S S S

-------------------------------------
--------------------------------------

-------------------------------------
--------------------------------------

-------------------------------------
------------------------------------0-

-11----11-11-12-(12)-12-12-12-11-----
------------------------------------0-

--0--0--0--0--0--(0)--0--0--0--0-0-0-
-11--11-11-14-12-(12)-12-12-12-11-----

-------------------------------------
--0------0--0--0--(0)--0--0--0--0-0---



  D/A
                       
----3----

   Q   E  S S +E  S S  S     +S  S  S S

---------------------------------------

---------------------------------------

-11--11-11-9-(9)-9-9-11b12r(11)p9------

--0---0--0-0-(0)-0-0--0-----------11-9-

--0---0--0-0-(0)-------------------0-0-

---------------------------------------



 Gtr I

  W

---------------------------------------

---------------------------------------

---------------------------------------

---------------------------------------

---------------------------------------

---------------------------------------



  A              Asus4               A
   E  S  S  E  S  S  +S   S  S  S  S  S  S S

--------------------------------------------


--------------------------------------------


----14-14-14-14-14-(14)-14-14-14-14---------


-11-11-11-11-11-12-(12)-12-12-12-12-11-11-9-


--0--0--0--0--0--0--(0)--0--0--0--0--0--0-0-


--------------------------------------------



  H                  Q            S  S  S S

--------------------------------------------


--------------------------------------------


--------------------------------------------


-------------------------------------9--9-9-


-------------------------------------0--0-0-


--------------------------------------------



 Pre-Chorus
  $
  A
  Gtr I
   Q   E  S  S  S  S  S  S  +S   S  S  S

----------------------------------------

----------------------------------------

----------------------------------------

-11--11-11-12-12h14-14-12-(12)-11-11-12-

--0---0--0--0--0-----0--0--(0)--0--0--0-

----------------------------------------



 Gtrs II, III

  Q   E  S  S  Q            S   S  S  S

--------------------------------------0-

--2---2--2--2--2------------2---2--2--0-

--2---2--2--2--2------------2---2--2--1-

--2---2--2--2--2------------2---2--2----

--0---0--0--0--0------------0---0--0----

----------------------------------------



  E
   Q   E  S  S  a  E  S  S  +S   S  S S

---------------------------------------

---------------------------------------

---------------------------------------

---------------------------------------

-14--14-11-12-12h14-14-12-(12)-11--0-0-

--0---0--0--0-----0--0--0--(0)--0--0-0-



  Q   E  S  S     E  S  S  +S   E.

--0---0--0--0-----0--0--0--(0)--0------

--0---0--0--0-----0--0--0--(0)--0------

--1---1--1--1-----1--1--1--(1)--1------

--2---2--2--2-----2--2--2--(2)--2------

--2---2--2--2-----2--2--2--(2)--2------

--0---0--0--0-----0--0--0--(0)--0------



  D/A                               A         Asus4
   Q   E  S S  S  S S S  S S  S S   S  S  E    E   S  S  S   S  S  S  S  S S S

---------------------------------
--------------------------------------------

---------------------------------
--------------------------------------------

-11--11-11-9--9--9-9-9-11-9------
--------------------------------------------

--0---0--0-0--0--0-0-0--0----7-9-
-9s11-11---11--11-12-12--12-12-12-12-11---9-

--0---0--0-0--0--0-0-0--0----0-0-
-0-----0----0---0--0--0---0--0--0--0--0-0-0-

---------------------------------
--------------------------------------------



  Q   E  S S +S  E   S  S E.       E.      S  E.     S +S   S  Q          E

--2---2--2-2-(2)-2---2--2-2------
--------------------------------------------

--3---3--3-3-(3)-3---3--3-3------
-2-------2--2------3-(3)--3--3--------------

--2---2--2-2-(2)-2---2--2-2------
-2-------2--2------2-(2)--2--2--------------

--0---0--0-0-(0)-0---0--0-0------
-2-------2--2------2-(2)--2--2----------0---

--0---0--0-0-(0)-0---0--0-0------
-0-------0--0------0-(0)--0--0----------0---

---------------------------------
--------------------------------------------



  A
   Q   E  S  S  S  S  S  S  +S   S  S  S

----------------------------------------

----------------------------------------

----------------------------------------

-11--11-11-12-12h14-14-12-(12)-11-11-12-

--0---0--0--0--0-----0--0--(0)--0--0--0-

----------------------------------------



  Q   E  S  S  Q            S   S  S  S

--------------------------------------0-

--2---2--2--2--2------------2---2--2--0-

--2---2--2--2--2------------2---2--2--1-

--2---2--2--2--2------------2---2--2----

--0---0--0--0--0------------0---0--0----

----------------------------------------



  E
   Q   E  S  S  a  E  S  S  +S   S  S S

---------------------------------------

---------------------------------------

---------------------------------------

---------------------------------------

-14--14-11-12-12h14-14-12-(12)-11--0-0-

--0---0--0--0-----0--0--0--(0)--0--0-0-



  Q   E  S  S     E  S  S  +S   E.

--0---0--0--0-----0--0--0--(0)--0------

--0---0--0--0-----0--0--0--(0)--0------

--1---1--1--1-----1--1--1--(1)--1------

--2---2--2--2-----2--2--2--(2)--2------

--2---2--2--2-----2--2--2--(2)--2------

--0---0--0--0-----0--0--0--(0)--0------



  F#m                          Dsus2/A
  Gtrs II, III
  E. S S S E +E    E Q         Q  E  S S +S  S  E     E   S   S
  
  
 
 
 
  
    
 
         
  
  
 
  
  
  
     
   
   

  /  / x x /  /    / /         /  /  / /  /  /  /     /   /   /

  Gtr I
  E. S S S E +S  S E S S S S   Q  E.   S  S  S  E     E   S   S

----------------------------
-5--5----5--5--5--5-----5---------


----------------------------
-5--5----5--5--5--5-----5---0---0-


----------------------------
-7--7----7--7--7--7-----7---0---0-


----------------------------
-7--7----7--7--7--7-----7---0---0-


-4--4-x---4-(4)-4-4-4-4-0-0-
-5--5----5--5--5--5-----5---0---0-


-2--2-x-0-2-(2)-2-2-2-2-0-0-
-5--5----5--5--5--5-----5---------



 Gtr IV

                                               \2.5/     \1/

 W                            H         +E     Q        +E

----------------------------
----------------------------------


----------------------------
-----------------10-------(10)----


----------------------------
-9---------(9)--------------------


----------------------------
----------------------------------


----------------------------
----------------------------------


----------------------------
----------------------------------



 Chorus
  A                                      E
  Gtr I
    Q     E  S  S  +S   S  E  S  S E      Q   E  S  S  +S   S  E    S   S  S S

--------------------------------------
---------------------------------------

----------------------------------0---
---------------------------------------

--14----14-14-14-(14)-14-14-14-14-0---
---------------------------------------

--11----11-11-12-(12)-12-12-12-11-0---
-14--14-14-14-(14)-14-14---14--14------

---0-----0--0--0--(0)--0--0--0--0-0---
-11--11-11-12-(12)-12-12---12--11--0-0-

--------------------------------------
--0---0--0--0--(0)--0--0----0---0--0-0-



 Gtrs II, III

   Q     E  S  S   Q         S  S S S    Q   E  S  S   E      S S +S   E.

------------------------------------0-
--0---0--0--0---0------0-0-(0)--0------

---2-----2--2--2---2---------2--2-2-0-
--0---0--0--0---0------0-0-(0)--0------

---2-----2--2--2---2---------2--2-2-1-
--1---1--1--1---1------1-1-(1)--1------

---2-----2--2--2---2---------2--2-2---
--2---2--2--2---2------2-2-(2)--2------

---0-----0--0--0---0---------0--0-0---
--2---2--2--2---2------2-2-(2)--2------

--------------------------------------
--0---0--0--0---0------0-0-(0)--0------



 Gtr IV

   \1/

  +Q     Q         H                     W

--------------------------------------
---------------------------------------

-(10)---------------------------------
---------------------------------------

--------------------------------------
---------------------------------------

--------------------------------------
---------------------------------------

--------------------------------------
---------------------------------------

--------------------------------------
---------------------------------------



  D/A
  Gtr I
                         
-----3------

   Q   E  S S +S  S E    S     +S     S  S S

--------------------------------------------

--------------------------------------------

-11--11-11-9-(9)-9-9---11b12r(11)p===9------

--0---0--0-0-(0)-0-0----0--------------11-9-

--0---0--0-0-(0)-0-0----0---------------0-0-

--------------------------------------------



 Gtrs II, III

  Q   E  S S +S  E   S  S         E.

--2---2--2-2-(2)-2---2--2---------2---------

--3---3--3-3-(3)-3---3--3---------3---------

--2---2--2-2-(2)-2---2--2---------2---------

--0---0--0-0-(0)-0---0--0---------0---------

--0---0--0-0-(0)-0---0--0---------0---------

--------------------------------------------



  A          Asus4
  S  S  S  S  E  S  S  +S   S  E  S  S  S  S

---------------------------------------------

---------------------------------------------

---------14-14----14-(14)-14-14-14-14-14-14--

-9s11-11-11-11----12-(12)-12-12-12-11-11-12--

-0-----0--0--0--0----------0--0--0--0--0--0--

---------------------------------------------



 E.       S  E.    S  +S   S  Q        E

---------------------------------------------

-2--------2--2-----3--(3)--3--3--------------

-2--------2--2-----2--(2)--2--2--------------

-2--------2--2-----2--(2)--2--2--------0-----

-0--------0--0-----0--(0)--0--0--------0-----

---------------------------------------------



  A                                   E
   Q   E  S  S  +S   S  E  S  S E      E.  S  E  S  S  +S   S  E    S   S  S S

-----------------------------------
------------------------------------------

-------------------------------0---
------------------------------------------

-14--14-14-14-(14)-14-14-14-14-0---
------------------------------------------

-11--11-11-12-(12)-12-12-12-11-0---
-14--14-14-14-14-(14)-14-14---14--14------

--0---0--0--0--(0)--0--0--0--0-0---
-11--11-11-11-12-(12)-12-11---11--11--0-0-

-----------------------------------
--0---0--0--0--0--(0)--0--0----0---0--0-0-



  Q   E  S  S   Q         S  S S S    Q      E  S  S   E      S S +S   E.

---------------------------------0-
--0------0--0--0---0------0-0-(0)--0------

--2---2--2--2---2---------2--2-2-0-
--0------0--0--0---0------0-0-(0)--0------

--2---2--2--2---2---------2--2-2-1-
--1------1--1--1---1------1-1-(1)--1------

--2---2--2--2---2---------2--2-2---
--2------2--2--2---2------2-2-(2)--2------

--0---0--0--0---0---------0--0-0---
--2------2--2--2---2------2-2-(2)--2------

-----------------------------------
--0------0--0--0---0------0-0-(0)--0------



                              To Coda
  D/A          A/C#
   E.  S  S  S  E  +S   S  E  S  S S S

--------------------------------------

--------------------------------------

-11--11-11-11-------------------------

--0---0--0--0-14-(14)-14-14-14-14-----

--0---0--0--0--0--(0)--0--0--0--0-0-0-

----------------------------------0-0-



  E.  S  S  S  E  +S   S  E  S  S S S

--------------------------------------

--3-----------------------------------

--2-----------------------------------

--0---0--0--0--7--(7)--7--7--7--7-----

--0---0--0--0--4--(4)--4--4--4--4-0-0-

----------------------------------0-0-



  F#5                D5/A
        PM--

  Q  E. S S S Q  E    Q   E.  S  E   Q  S S

------------------
-------------------------


----------------0-
-------------------------


----------------0-
-11--11--11-11---9--9-9--


----------------0-
--0---0---0--0---0--0-0--


-4--4--4-4-4-4--0-
--0---0---0--0---0--0-0--


-2--2--0-2-0-0----
-------------------------



       PM--

 Q  E. S S S Q  E    Q   E.  S  S S Q  S S

------------------
-------------------------


----------------0-
--3---3---3--3-3-3--0-0--


----------------0-
--2---2---2--2-2-2--0-0--


----------------0-
--0---0---0--0-0-0--0-0--


-4--4--4-4-4-4--0-
--0---0---0--0-0-0--0-0--


-2--2--0-2-0-0----
-------------------------



 Verse
  A         Asus4         A        E               Eadd4
   >
   W                                +Q         Q        H

--------------------------------
--------------------------------------

--------------------------------
--------------------------------------

--------------------------------
--------------------------------------

-11-----------------------------
-(11)---------------------------------

--0-----------------------------
--(0)---------------------------------

--------------------------------
--------------------------------------



  Q   E  S  S  +E.  S  S  S S S     E   S  S  E S  S  +E.  S  S  S S S

--------------------------------
---0---0--0--0----0--(0)--0--0--0-----

--------------------------------
--12--12-12-12---12-(12)-12-12-12---0-

-14--14-14-14-(14)-14-14-14-0-0-
--13--13-13-13---13-(13)-13-13-13---0-

-11--11-11-12-(12)-12-12-11-0-0-
------------------------------------0-

--0---0--0--0--(0)--0--0--0-0-0-
--11--11-11-11---12-(12)-12-12-12-0---

----------------------------0-0-
---0---0--0--0-0------------------0---



  D/A                     A              Asus4               A
  Gtrs II, III
   Q   E  S S E S S E E    E  S  S  E  S  S  +S   S  S  S  S  S  S  S

-----------0-0-0-0-0---
---------------------------------------------

-----------------------
---------------------------------------------

-11--11-11-9-9-9-9-9-0-
-14-14-14-14-14-14-(14)-14-14-14-14-14-14-14-

--0---0--0-0-0-0-0-0-0-
-11-11-11-11-11-12-(12)-12-12-12-12-11--9--9-

--0---0--0-0-0-0-0-0-0-
--0--0--0--0--0--0--(0)--0--0--0--0--0--0--0-

-----------------------
---------------------------------------------



  A         Asus4               A        E                   Eadd4
   Q   E  S  S  +S   S  S  S  S  S S S    Q   S  S S  S  +E   S  S  S  S S S

----------------------------------0-0-
--0---0--0----0--(0)--0--0--0--0-----

----------------------------------0-0-
-12--12-12---12-(12)-12-12-12-12-0-0-

-14--14-14-14-(14)-14-14-14-14-14-0-0-
-13--13-13---13-(13)-13-13-13-13-0-0-

-11--11-11-12-(12)-12-12-12-12-11-0-0-
---------------------------------0-0-

--0---0--0--0--(0)--0--0--0--0--0-0-0-
-11--11------12-(12)-12-12-11-11-0-0-

----------------------------------0-0-
--0--------0----------0--0--0--0-0-0-



  D/A
  Gtr I
   W

----------------------------------------------

----------------------------------------------

----------------------------------------------

----------------------------------------------

----------------------------------------------

----------------------------------------------



 Gtrs II, III

                             
----3----

  E  S  S  E  S S +S  S S S  S     +S  S  S S

----------------------------------------------

----------------------------------------------

-11-11-11-11-11-9-(9)-9---9-11b12r(11)p9------

--0--0--0--0--0-0-(0)-0-0----0-----------11-9-

--0--0--0--0--0-0-(0)-0-------------------0-0-

----------------------------------------------



                                          D.S. al Coda
  A                 Asus4                A
                                    \0.5
   H                  S   S  E      E.           +S

---------------------x--------------------------------


-------------------------0--0-------------------------


-------------------------0--0----<12>---------(<12>)--


-------------------------0--0-------------------------


-------------------------0--0-------------------------


-------------------------0--0-------------------------



  E  S  S  E  S  S  +S   S  S  S   S     S  S    S

------------------------------------------------------


------------------------------------------------------


-14-14-14-14-14-14-(14)-14-14-14--14----14-14---14----


-11-11-11-11-11-12-(12)-12-12-12--12----11--9----9----


--0--0--0--0--0--0--(0)--0--0--0---0-----0--0----0----


------------------------------------------------------



  &
  Gtr IV
   W                       +Q     Q      Q       E    E

-----------------------
--------------<12>----------------

-----------------------
-----------------------------5/---

-<7>-------------------
-(<7>)--<7>------------<7>--------

-----------------------
----------------------------------

-----------------------
----------------------------------

-----------------------
----------------------------------



 Gtrs I, II, III

         PM--

  Q   E. S S S E S S E     Q     E. S   S  S E  S  S S  S

-----------------------
----------------------------------

-----------------------
---3-----3--3---3--3-3--3--3------

-----------------------
---2-----2--2---2--2-2--2--2------

-----------------------
---0-----0--0---0--0-0--0--0-0--0-

--4---4--4-4-4-4-4-4-0-
---0-----0--0---0--0-0--0--0-0--0-

--2---2--0-2-0-2-2-2-0-
-----------------------------0--0-



 Guitar Solo
  A
  Gtr I
   Q    E  S  S  S      S  E      S    S      S     S

--------------------------------------------------------

--------------------------------------------------------

-14---14-14-14-14--------14-----14----------------------

-11---11-11-11-11h====12-12-----12---11-----------------

--0----0--0--0--0---------0------0----0------0-----0----

---------------------------------------------0-----0----



 Gtrs II, III

  Q    E  S  S  Q                S    S      S     S

---------------------------------------------------0----

--2----2--2--2--2----------------2----2------2-----0----

--2----2--2--2--2----------------2----2------2-----1----

--2----2--2--2--2----------------2----2------2----------

--0----0--0--0--0----------------0----0------0----------

--------------------------------------------------------



 Gtr IV

  ~~~~~~~~~~

  Q.      S  S  S      S  S  S  +S   +T   T  T  T  T  T

-------------------------17-----------------------------

-14------14-15-15b17==15----15-(15)r(15)p14-15h17p15p14-

--------------------------------------------------------

--------------------------------------------------------

--------------------------------------------------------

--------------------------------------------------------



  E
   Q    E.     S      +S   S  E        S   S   E

-------------------------------------------------------------

-------------------------------------------------------------

-------------------------------------------------------------

-14---14-----14-----(14)-14-14-------14--14------------------

-11---11-----12-----(12)-12-12-------11--11------------------

--0----0------0------(0)--0--0--------0---0---0--------------



  Q    E   S  S       E      S   S   +S   E.

--0----0---0--0-------0------0---0---(0)--0------------------

--0----0---0--0-------0------0---0---(0)--0------------------

--1----1---1--1-------1------1---1---(1)--1------------------

--2----2---2--2-------2------2---2---(2)--2------------------

--2----2---2--2-------2------2---2---(2)--2------------------

--0----0---0--0-------0------0---0---(0)--0------------------



  Q   +E   S  S       S   S  S  +S   +S   S   T  T  a  T  T

-------------------------------------------------------------

---------------------14--15----------------------------------

-16--(16)S14-16b17==========16r(16)-(16)-14------------------

---------------------------------------------16p14-----------

---------------------------------------------------16p14p12--

-------------------------------------------------------------



  D/A
                                                 
-----3-----

   Q     E   S   S +S         S         E        S     +S    S  S S

-------------------------------------------------------------------

-------------------------------------------------------------------

-11----11--11---9-(9)--------9---------9-------11b12r(11)p==9------

--0-----0---0---0-(0)--------0---------0--------0-------------11-9-

--0-----0---0---0-(0)--------0---------0--------0--------------0-0-

-------------------------------------------------------------------



  Q     E   S   S +S         E             S    S         E.

--2-----2---2---2-(2)--------2-------------2----2---------2--------

--3-----3---3---3-(3)--------3-------------3----3---------3--------

--2-----2---2---2-(2)--------2-------------2----2---------2--------

--0-----0---0---0-(0)--------0-------------0----0---------0--------

--0-----0---0---0-(0)--------0-------------0----0---------0--------

-------------------------------------------------------------------



  ~~~   ~~~~~~~~

                   
-------10--------

  E. S  E  +S   S  T T T T T T T T T T T T T T  S         S    E

-------17-(17)\----2h4h5p4p2---------------------------------------

-----0----------0------------5p3p2---2h3h5p3p2---------------------

-14--0----------0------------------4------------4p========2p===1---

-----0----------0--------------------------------------------------

-------------------------------------------------------------------

-------------------------------------------------------------------



  A              Asus4
  S     S  S  S   E  S  S  +S      S    E    S      S    S    S

-----------------------------------------------------------------

-----------------------------------------------------------------

------------14--14----14-(14)----14---14---14-----14---14---14---

-9s===11-11-11--11----12-(12)----12---12---12-----11---11---12---

-0--------0--0---0--0-------------0----0----0------0----0----0---

-----------------------------------------------------------------



 E.          S   E.    S  +S      S    Q                E

-----------------------------------------------------------------

-2-----------2---2-----3--(3)-----3----3-------------------------

-2-----------2---2-----2--(2)-----2----2-------------------------

-2-----------2---2-----2--(2)-----2----2----------------0--------

-0-----------0---0-----0--(0)-----0----0----------------0--------

-----------------------------------------------------------------



 \3.5/                     \0.5/            \0.5/

                           
------3------
  
------3------

 E.         +S   E.    S   E        E    E  E        E    E

-----------------------------------------------------------------

-----------------------------------------------------------------

-2----------(2)--4-----4---6s=======4----2--7p=======6p===4------

-----------------------------------------------------------------

-----------------------------------------------------------------

-----------------------------------------------------------------



  A
    Q   E     S     S  +S   S  E     S     S   E

----------------------------------------------------

----------------------------------------------0-----

--14--14----14----14-(14)-14-14----14----14---0-----

--11--11----11----12-(12)-12-12----12----11---0-----

---0---0-----0-----0--(0)--0--0-----0-----0---0-----

----------------------------------------------------



   Q   E     S     S   Q            S     S   S   S

--------------------------------------------------0-

---2---2-----2-----2---2------------2-----2---2---0-

---2---2-----2-----2---2------------2-----2---2---1-

---2---2-----2-----2---2------------2-----2---2-----

---0---0-----0-----0---0------------0-----0---0-----

----------------------------------------------------



   ~~~~~~~         ~~~~~~~

   Q   S  S  S  a  S   E.        S  E        +S   S

--------------------------------19-19b21r===(19)p16-

----------------------------------------------------

-/14--14h18p14-14h16--16----------------------------

----------------------------------------------------

----------------------------------------------------

----------------------------------------------------



  E
   Q         E   S    S  +S        S        E                 S        S        S         S

----------------------------------------------------------------------------------------------

----------------------------------------------------------------------------------------------

----------------------------------------------------------------------------------------------

-14--------14--14---14-(14)------14-------14----------------14-------14-----------------------

-11--------11--11---12-(12)------12-------12----------------12-------11--------0---------0----

--0---------0---0----0--(0)-------0--------0-----------------0--------0--------0---------0----



  Q         E   S    S   E                 S        S       +S        E.

--0---------0---0----0---0-----------------0--------0-------(0)-------0-----------------------

--0---------0---0----0---0-----------------0--------0-------(0)-------0-----------------------

--1---------1---1----1---1-----------------1--------1-------(1)-------1-----------------------

--2---------2---2----2---2-----------------2--------2-------(2)-------2-----------------------

--2---------2---2----2---2-----------------2--------2-------(2)-------2-----------------------

--0---------0---0----0---0-----------------0--------0-------(0)-------0-----------------------



  ~~~~~~~   ~~~~~~~~

                         
-------------12:8---------------
  
----------9:6----------

  E.  T  T  E  +S    S   T  T  T  T  T  T  T  T  T  T  T  T  T  T  T  T  T  T  T  T  T  +S

----------------------------------------------------------------------------------------------

-17--17h21p17-(17)\---------------------------------------------------------------------------

---------------------------------------------------------------------18h19h21p19p18-----------

---------------------7--------------------18h19h21p19p18----18h19h21----------------21-(21)---

---------------------------------17h19h21----------------21-----------------------------------

------------------------17h19h21--------------------------------------------------------------



  D/A               A/C#
  Gtrs I, II, III
   E.        S  S S   E           +S        S        E              S     S        S  S

----------------------------------------------------------------------------------------

----------------------------------------------------------------------------------------

-11--------11--------7-----------(7)-------7--------7--------------7-----7--------------

--0---------0--0-0---4-----------(4)-------4--------4--------------4-----4--------------

--0---------0--0-0----------------------------------------------------------------0--0--

----------------------------------------------------------------------------------------



 Gtr IV

               ~~~~~~~~~~

  
--3---
               
--3--
  
------6-------
        
--3--
        
--3--

  E   E  E     E    +S   T  T  T  T  T  T  T  T  T  T  T  T  T  T  T  T  T  T  T  S  S

---------------------------------14h16h17p16p14-----------------------------------------

--------------22---(22)S14h15h17----------------17p15----14h15h17p15p14-------------12\-

-21--19-18--------------------------------------------16----------------16p14p13h14-----

----------------------------------------------------------------------------------------

----------------------------------------------------------------------------------------

----------------------------------------------------------------------------------------



  F#5
              PM-----

  Q   E.   S  S    S E     S    S    E

----------------------------------------


----------------------------------------


----------------------------------------


----------------------------------------


-4---4----4--4----4-4-----4----4----0---


-2---2----0--2----0-2-----2----2----0---



             \2.5

 Q  +E  S S +E.       +S  S   +T  T S S

----------------------------------------


----------------------------------------


-6--(6)-6-4-(4)-------(4)-4b6r(4)p2---2-


------------------------------------4---


----------------------------------------


----------------------------------------



 Interlude
  A                 Asus4
  Gtrs I, II
   Q            E S  S  +Q.        S S

--------------------------------------

--------------------------------------

--------------------------------------

-11-----------11---12-(12)--------0-0-

--0------------0-0--0--(0)--------0-0-

--------------------------------------



 Gtr IV

  /1\

       ~~~~~~~~~~~~~~~~~~~~~~~~~~~

  S   +S  +Q.          +Q   Q

--------------------------------------

--------------------------------------

--2---(2)-(2)----------(2)--2(14)-----

--------------------------------------

--------------------------------------

--------------------------------------



  E             Esus4
   Q       E  S  S  +Q               S      S       E

-------------------------------------------------------

-------------------------------------------------------

-------------------------------------------------------

-------------------------------------------------------

-11------11-14-12-(12)-------------12-----11-----------

--0-------0--0--0--(0)--------------0------0-------0---



                       \0.5/ \0.5/  \0.5/    \0.5/

  T

                    
---3----
      
-------3--------

  H                +E  E     E      E        E       E

-------------------------------------------------------

-------------------------------------------------------

--2(21)------------(2)-2-----2------2--------2---------

-----------------------------------------------------0-

-----------------------------------------------------0-

-------------------------------------------------------



  D/A                                     A
  Gtrs I, II, III
                       
----3----

   Q   E  S S +E  S S  S     +S  S  S S   S  E.  E  S S +Q   S S S    S

---------------------------------------
-------------------------------


---------------------------------------
-------------------------------


-11--11-11-9-(9)-9-9-11b12r(11)p9------
-------------------------------


--0---0--0-0-(0)-0-0--0-----------11-9-
-9h11--11-11-9-(9)--7-7-9b10r9-


--0---0--0-0-(0)-------------------0---
-0------0--0-0-(0)--0-0-0------


---------------------------------------
-------------------------------



 Chorus
  A        Asus4       A      E         Esus4       E
  Gtrs I, II
   Q   E S  S  +Q    S  E S    Q    E S  S  +Q    S  S S S

---------------------------
------------------------------

---------------------------
------------------------------

---------------------------
------------------------------

-11--11---12-(12)--12-11---
------------------------------

--0---0-0--0--(0)---0--0-0-
-11---11---12-(12)--12-11-0-0-

-------------------------0-
--0----0-0--0--(0)---0--0-0-0-



 Gtr IV

  W                          +W

---------------------------
------------------------------

---------------------------
------------------------------

---------------------------
------------------------------

---------------------------
------------------------------

--0------------------------
-(0)--------------------------

---------------------------
------------------------------



  D/A                                     A         Asus4               A
                       
----3----

   Q   E  S S +E  S S  S     +S  S  S S    Q   E  S  S  +S   S  S  S  S  S S S

---------------------------------------
--------------------------------------

---------------------------------------
--------------------------------------

-11--11-11-9-(9)-9-9-11b12r(11)p9------
-----14-14-14-(14)-14-14-14-14-14-----

--0---0--0-0-(0)-0-0--0-----------11-9-
-11--11-11-12-(12)-12-12-12-12-11-9-9-

--0---0--0-0-(0)-0-0---------------0---
--0---0--0--0--(0)--0--0--0--0--0-0-0-

---------------------------------------
--------------------------------------



  A                                   E
  Gtr I
   Q   E  S  S  +S   S  E  S  S E      E.  S  E  S  S  +S   S  E    S   S  S S

-----------------------------------
------------------------------------------

-------------------------------0---
------------------------------------------

-14--14-14-14-(14)-14-14-14-14-0---
------------------------------------------

-11--11-11-12-(12)-12-12-12-11-0---
-14--14-14-14-14-(14)-14-14---14--14------

--0---0--0--0--(0)--0--0--0--0-0---
-11--11-11-11-12-(12)-12-11---11--11--0-0-

-----------------------------------
--0---0--0--0--0--(0)--0--0----0---0--0-0-



 Gtrs II, III

  Q   E  S  S   Q         S  S S S    Q      E  S  S   E      S S +S   E.

---------------------------------0-
--0------0--0--0---0------0-0-(0)--0------

--2---2--2--2---2---------2--2-2-0-
--0------0--0--0---0------0-0-(0)--0------

--2---2--2--2---2---------2--2-2-1-
--1------1--1--1---1------1-1-(1)--1------

--2---2--2--2---2---------2--2-2---
--2------2--2--2---2------2-2-(2)--2------

--0---0--0--0---0---------0--0-0---
--2------2--2--2---2------2-2-(2)--2------

-----------------------------------
--0------0--0--0---0------0-0-(0)--0------



  D/A      A/C#              F#5                     D5/A
  Gtrs I, II, III
  E. S S S E S E S S S S S   Q  E. S S S E S S S S   Q  E. S S S E S S E

--------------------------
-----------------------
----------------------

-3------------------------
-----------------------
-3--3--3-3-3-3-3-3-0--

-2------------------------
-----------------------
-2--2--2-2-2-2-2-2-0--

-0--0-0-0-7-7-7-7-7-7-----
-----------------------
-0--0--0-0-0-0-0-0-0--

-0--0-0-0-4-4-4-4-4-4-0-0-
-4--4--4-4-4-4-4-4-0-0-
-0--0--0-0-0-0-0-0-0--

----------------------0-0-
-2--2--0-2-0-0-0-0-0-0-
----------------------



  A                                   E
  Gtr I
   Q   E  S  S  +S   S  E  S  S E      E.  S  E  S  S  +S   S  E    S   S  S S

-----------------------------------
------------------------------------------

-------------------------------0---
------------------------------------------

-14--14-14-14-(14)-14-14-14-14-0---
------------------------------------------

-11--11-11-12-(12)-12-12-12-11-0---
-14--14-14-14-14-(14)-14-14---14--14------

--0---0--0--0--(0)--0--0--0--0-0---
-11--11-11-11-12-(12)-12-11---11--11--0-0-

-----------------------------------
--0---0--0--0--0--(0)--0--0----0---0--0-0-



 Gtrs II, III

  Q   E  S  S   Q         S  S S S    Q      E  S  S   E      S S +S   E.

---------------------------------0-
--0------0--0--0---0------0-0-(0)--0------

--2---2--2--2---2---------2--2-2-0-
--0------0--0--0---0------0-0-(0)--0------

--2---2--2--2---2---------2--2-2-1-
--1------1--1--1---1------1-1-(1)--1------

--2---2--2--2---2---------2--2-2---
--2------2--2--2---2------2-2-(2)--2------

--0---0--0--0---0---------0--0-0---
--2------2--2--2---2------2-2-(2)--2------

-----------------------------------
--0------0--0--0---0------0-0-(0)--0------



                              To Coda
  D/A          A/C#
   E.  S  S  S  E  +S   S  E  S  S S S

--------------------------------------

--------------------------------------

-11--11-11-11-------------------------

--0---0--0--0-14-(14)-14-14-14-14-----

--0---0--0--0--0--(0)--0--0--0--0-0-0-

----------------------------------0-0-



  E.  S  S  S  E  +S   S  E  S  S S S

--------------------------------------

--3-----------------------------------

--2-----------------------------------

--0---0--0--0--7--(7)--7--7--7--7-----

--0---0--0--0--4--(4)--4--4--4--4-0-0-

----------------------------------0-0-



  F#5                D5/A
        PM--

  Q  E. S S S Q  E    Q   E.  S  E   Q  S S

------------------
-------------------------


----------------0-
-------------------------


----------------0-
-11--11--11-11---9--9-9--


----------------0-
--0---0---0--0---0--0-0--


-4--4--4-4-4-4--0-
--0---0---0--0---0--0-0--


-2--2--0-2-0-0----
-------------------------



       PM--

 Q  E. S S S Q  E    Q   E.  S  S S Q  S S

------------------
-------------------------


----------------0-
--3---3---3--3-3-3--0-0--


----------------0-
--2---2---2--2-2-2--0-0--


----------------0-
--0---0---0--0-0-0--0-0--


-4--4--4-4-4-4--0-
--0---0---0--0-0-0--0-0--


-2--2--0-2-0-0----
-------------------------



 Outro
  A                                  E
  Gtr I
   Q.    S  S  a  E.  S  +S   E  S    Q.    S  S  a  E.  S  +S   E S

----------------------------------
---------------------------------

----------------------------------
---------------------------------

----------------------------------
---------------------------------

-11----11-12-12h14--12-(12)-11-12-
-------------------------------0-

--0-----0--0-----0---0--(0)--0--0-
-14----11-12-12h14--12-(12)-11-0-

----------------------------------
--0-----0--0-----0---0--(0)--0---



  D/A     A/C# D/A/C#  A5
               
-3-

  Q  E. S E. S E E E   W

--------------------
----------------*

-3--3---------3-0---
----------------*

-2--2--2-2--2-2-2---
----------------*

-0--0--0------0-----
-2--------------*

-0--0--0-4--4-0-4-0-
-0--------------*

------------------0-
----------------*



 Gtr III

 W                    Q   E  Q.   Q

--------------------
----------------*

--------------------
----------------*

--------------------
----------------*

--------------------
----11p=9-------*

--------------------
-----0-(0)------*

--------------------
----------------*



Duration Legend
---------------
W - whole; H - half; Q - quarter; E - 8th; S - 16th; T - 32nd; X - 64th; a - acciaccatura
+ - note tied to previous; . - note dotted; .. - note double dotted
Uncapitalized letters represent notes that are staccato (1/2 duration)
Irregular groupings are notated above the duration line
Duration letters will always appear directly above the note/fret number it represents the
duration for.  Duration letters with no fret number below them represent rests.  Multi-
bar rests are notated in the form Wxn, where n is the number of bars to rest for.  Low
melody durations appear below the staff

Tablature Legend
----------------
 h   - hammer-on
 p   - pull-off
 b   - bend
 pb  - pre-bend
 r   - bend release (if no number after the r, then release immediately)
 /\  - slide into or out of (from/to "nowhere")
 s   - legato slide
 S   - shift slide
  - natural harmonic
[n]  - artificial harmonic
n(n) - tapped harmonic
 ~   - vibrato
 tr  - trill
 T   - tap
 TP  - trem. picking
 PM  - palm muting
\n/  - tremolo bar dip; n = amount to dip
 \n  - tremolo bar down
 n/  - tremolo bar up
/n\  - tremolo bar inverted dip
 =   - hold bend; also acts as connecting device for hammers/pulls
 <>  - volume swell (louder/softer)
 x   - on rhythm slash represents muted slash
 o   - on rhythm slash represents single note slash

Misc Legend
-----------
 
  - bar

  - double bar

o - repeat start
o
 - repeat end
*
  - double bar (ending)
 :  - bar (freetime)
 $  - Segno
 &  - Coda
Tempo markers -  = BPM(8/16=s8/s16), where s8 = swing 8ths, s16 = swing 16ths


***************************************************************************************

***************************************************************************************
 


/
How To Set Up Higher Praise As Your Home Page
Copyright 1999, Higher Praise HigherPraise,Inc. All rights reserved. Terms of Use

Enjoy A Life Changing Experience

 
 
 
HigherPraise, Higher Praise, HigherPraise, Higher Praise, HigherPraise

Members..Sign Up. LogIn

 
 

Higher Praise Other Sites
 
 

HigherPraise.org/
Praise And Worship
www.higherpraise.org

HigherPraise.net
Christian Resources
www.higherpraise.net

HigherPraiseTube.com
Videos And Audios
www.higherpraisetube.com.


ChristianLyrics.org

Lyrics And Chrords
www.christianlyrics.org

ChristianChordsLyrics

Lyrics And Chrords
www.christianchordslyrics.com

ChristianChordLyrics

Lyrics And Chrords
www.christianchordlyrics.com

WorshipLyrics.org
10.000 Illustrations
www.worshiplyrics.org

WorshipLyrics.net
10.000 Illustrations
www.worshiplyrics.net

PraiseLyrics.com
PowerPoint Lyrics

www.praiselyrics.com

PraiseLyrics.org
PowerPoint Lyrics

www.praiselyrics.org

1GodTube.com
Chistian Videos

www1godtube..com

OneGodTube.com
Chistian Videos

www.onegodtube..com

 

/
Copyright 1999 - 2019, Higher Praise™ HigherPraise™,Inc. All rights reserved. Terms of Use