Higher Praise - Guitar Chords, Lyrics  GuitarTabs -  Praise nad Worship Music And Christian Songs

Higher Praise - Guitar Tabs, Guitar Chords, Lyrics
   Lyrics, Chords And Tabs
   Popular Lyrics Chords Tab
   Power Point Lyrics
   Praise & Worship Music
   Christian Music Videos
   15900 Videos & Audios
   Midi Files
   Worship Questions
   Christmas Chords, Lyrics
   Lyrics, Chords Tabs Rated

Sermon Outlines And Audio Sermons
   9344 Sermon Outlines
   N.T. Sermon Outlines
   O.T. Sermon Outlines
   Special Guest Outlines
   10.000 Illustrations
   Sunday School Studies
   Bible College Studies
   Greatest Preachers
   Bible Research Tools
Audio Sermons
   2895 Audio Sermons
   85 Sermon Videos
   291 Special Guests Serm

   Complete Audio Bible
Higher Praise Sunday School Teaching
   Children's NT Studies
   Children's OT Studies

   98 Children's Midis
   Gospel For Kids Movie
   Children's JESUS Film
Higher Praise Christian Video Library ,Videos
   Christian Television
   TBN TV Live
   15,000 Videos - HP Tube
   712 Youth Music Vids
  Christian Video Library
   Praise Videos #1 & #2
   85 Sermon Videos
   Prophecy Film -Videos
   JESUS Film -Video
   Childrens JESUS Film
   Gospel For Kids Movie
   Passion Of The Christ
   Noah, Sodom, Sinai, Ark
   Tsunami Videos Photos
News And Information
   Testimonies
   Submit Lyrics, Tabs, Serm
   10.000 Illustrations
   Bible College Course
   Clipart & Web Graphics
   Greatest Preachers
   Complete Talking Bible
   Christian Chat Rooms
   Links Church Resource
   HP Statement Of Faith
Download Clipart
   Audio Sermons
   Clipart & Web Graphics
   Church Administration
   Bible Study Software
   Screen Savers Software
   Verse A Day Software
   Educational Games
   Trade Center Photos

   Soft. Search Engine
Higher Praise News
   Current News
    Archived News
   Submit News
   Newsletter   Higher Praise Interact Prayer
   Prayer For All Needs
   
Submit Lyrics, Sermons
   
Contact Higher Praise
   
Advertising 
   Privacy Policy
//
He Died For You,  Click For Answer! This Is Who Jesus Is Video

'
 
0-9 A B C D E F G H I J K L M N O P Q R S T U V W X Y Z
.

//
Click For Printable...Version Of This File
 

Blackbird


by Alter Bridge




Alter Bridge - Blackbird
from the album "Blackbird"
written by Mark Tremonti and Myles Kennedy


Eb tuning (all strings tuned down 1/2 step)
6/8 time ( 6 beats per bar) 
*Updated Guitar parts 10/04/08

    Intro - Acoustic (Riff 1)                                    1st, 3rd ending
Eb----------------------
------------0-------
------------------
----------------------

Bb------3---------3-----
------3--------3----
------------------
---------------------R

Gb--3-----3---2-----0---
--2-----2---------2-
--2---3---3-2-0---
--------0---------0---

Db----------------------
--------------------
----------------0-
------0---------0-----

Ab----------------------
--------------------
------------------
--8---------8--------R

Eb--3-3-----3-3-3-----0-
--2-2-----2-2-2---0-
--1-1---1-1-1-----
--6-6-----6-5-5-----0-

    w/ Thumb 

   2nd Ending         4th ending
Eb--------------------------
   
------------------------

Bb-------------------------R
   
-----------------------R

Gb---------0----0-----0-----
   
-------0----------------

Db-------0----------7-------
   
-----0------------0-----

Ab--8----------8-----------R
   
--8--------3----1------R

Eb--6--6-----6-5--5-----0---
   
--6------0-1--1-----0---


Eerie Guitar 2 lick (0:37-0:55)       *Let ring & hold bends
Eb---------------
-------------
-------------
----------------

Bb-8-------------
-8b10--------
-(b10)-b11---
-b10-----------o

Gb---------------
-------------
-------------
----------------

Db---------------
-------------
-------------
----------------

Ab---------------
-------------
-------------
---------------o

Eb---------------
-------------
-------------
----------------


   Heavy Guitar (Riff 2)		 
Eb---------------
-------------
-------------
--------------

Bb---------------
-------------
-------------
-------------o

Gb---------------
-------------
-------------
--3--3--5--5--

Db---------------
-------------
-------------
--3--3--3--3--

Ab---------------
-------------
-------------
--1--1--0--0-o

Eb--3~~---5b6r5--
-2~~--5b6r5--
-1~~--5b6r5--
--------------


  Chorus - Listen to song for strum rhythm
Eb------------
----------
-----------
-----------
------------
-----------

Bb------------
----------
-----------
-----------
------------
-----------

Gb--8---------
-7--------
-----------
--0--------
--8---------
--7--------

Db--8---------
-7--------
--3--------
--2--------
--8---------
--7--------

Ab--6---------
-5--------
--3--------
--3--------
--6---------
--5--------

Eb--6---------
-5--------
--1--------
--0--------
--6---------
--5--------


Transition Lick (Guitar 2), Other guitar plays Acoustic Riff over these bars
Eb
--
--
--
----------
-----------
---------------
------------
------

Bb
--
--
--
---b15r13-
-10--------
---------------
--10--------
------

Gb
--
--
--
----------
----12-12~-
---12-12-12-12-
----12-12~--
------

Db
--
--
--
----------
-----------
---------------
------------
------

Ab
--
--
--
----------
-----------
---------------
------------
------

Eb
--
--
--
----------
-----------
---------------
------------
------


Play Acoustic, Eerie part, Heavy part, and chorus again then:

After 2nd Chorus (Fill 1)
Eb---------------
-----------------

Bb---------------
-----------------

Gb---------------
-----------------

Db--5--5---7--7--
--8--8---10--10--

Ab---------------
-----------------

Eb--3--3---5--5--
--6--6---8---8---



Play Chorus again except last bar (Db Chord) 
Both Guitars (Riff 3)
Eb------------
------------
---------------
-----------
--------------
-----------

Bb------------
------------
---------------
-----------
--------------
-----------

Gb--7---------
-7----------
--8-7---8-7-5--
--7--------
--------------
--7--------

Db--8---------
-7----------
--8-7---8-7-5--
--7--------
------4-5-4---
--7--------

Ab------------
-5----------
--6-5---6-5-3--
--5--------
--5-6-------6-
--5--------

Eb--6---------
-5----------
--6-5---6-5-3--
--5--------
--------------
--5--------


					       Start Interlude, {Gtr. 2}    	
Eb---------------
-----------
----------------
-------------
--------

Bb---------------
-----------
----------------
-------------
--------

Gb--8-7---8-7-5--
--7--------
----------------
-------------
--------

Db--8-7---8-7-5--
--7--------
------4-8-7-/10-
-------------
--------

Ab--6-5---6-5-3--
--5--------
--5-6-----------
-{10~~----5--
--8~}---

Eb--6-5---6-5-3--
--5--------
----------------
--3----------
--------



Clean Tone Gtr. 1
Interlude - Play 16 times & end on this note

Eb-----------15----13------
--15------

Bb--------12----12----12--o
----------

Gb--12-12------------------
----------

Db-------------------------
----------

Ab------------------------o
----------

Eb-------------------------
----------



After first 8 bars, Gtr. 2 play Riff 4:
Eb--------------------
--------------------
---------------------
-------------------

Bb--------------------
--------------------
---------------------
----------/6-------

Gb------5---7-5---5h7-
------5---8-7---5h7-
------5---7--5---5h7-
------5------8p7p5-

Db--5-5---5-----5-----
--5-5---5-----5-----
--5-5---5------5-----
--5-5---5----------

Ab--------------------
--------------------
---------------------
-------------------

Eb--------------------
--------------------
---------------------
-------------------


Eb---------------------
------------------
--------------------
----------------

Bb---------------------
------------------
--------------------
----------------

Gb-------5---5p3-2-3h5-
------7---7-5p3p2-
------5---7-5---5h7-
------5---5/7~--

Db---5-5---5-----------
--5-5---5---------
--5-5---5-----5-----
--5-5---5-------

Ab---------------------
------------------
--------------------
----------------

Eb---------------------
------------------
--------------------
----------------



Riff 5 played 2x, as singing begins
Eb-------------------
----------------
------------------
-------------

Bb-------------------
----------------
------3---3p2--0--
--2--2--2--2-

Gb-------3----3p2-0--
--2---3p2-------
------------------
-------------

Db---5-5-------------
-----------5--5-
--5---------------
-------------

Ab-------------------
----------------
------------------
-------------

Eb-------------------
----------------
------------------
-------------


Eb-------------------
----------------
-----------------
-----------------

Bb-------------------
----------------
-----------------
-----------------

Gb------3----3p2-0---
-------------5--
------3-------3--
-----0--2--2b3r2-

Db---0---------------
--4--5---5p4----
--0-------0------
--0--------------

Ab-------------------
----------------
-----------------
-----------------

Eb-------------------
----------------
-----------------
-----------------


Eb-------------------
----------------
------------------
---------------

Bb-------------------
----------------
------3---3p2--0--
--5--3--2/3--2-

Gb-------3----3p2-0--
--2---2b3r2-----
------------------
---------------

Db---5-5-------------
-----------5--5-
--5---------------
---------------

Ab-------------------
----------------
------------------
---------------

Eb-------------------
----------------
------------------
---------------


Eb-------------------
----------------
-----------------
-----------------

Bb-------------------
----------------
-----------------
-----------------

Gb------3----3p2-0---
----------------
------0-------0--
------0-------0--

Db---0---------------
--4--5---5p4--0-
--0-------0------
--0-------0------

Ab-------------------
----------------
-----------------
-----------------

Eb-------------------
----------------
-----------------
-----------------


As Riff 5 begins 2nd time, Solo Begins


Myles Solo w/ Warm Dist.     prebends are in ()
Eb-------------
--------
----------------
--------
-----------------

Bb-------------
--------
----------------
--------
-----------------

Gb--x\-----5p0-
--------
-----------3-5--
-b8r5b8-
----------3--5p3-

Db--x\---------
--5~~~--
--(5)~~--5------
--------
--------5--------

Ab-------------
--------
----------------
--------
--6~-------------

Eb-----19\-----
--------
----------------
--------
-----------------

		Hold bend				      
Eb---------3-
---------------
-------------3--
------------------------------------------

Bb-----------
---------------
----------------
------------------------------------------

Gb---5b7~----
-6\5---5-3-5b7-
-(b7)r5-3-------
-15b16------------------------------------

Db-----------
---------------
---------5~-----
-------17-15-17-15------------------------

Ab-----------
---------------
----------------
------------------17\15p13-16\15p13-15p13-

Eb-----------
---------------
----------------
------------------------------------------

    
Eb-------------------------
-----------------------
------
----------15--18--20p18-

Bb-------------------------
-------15----15~-14-13-
-16~--
-(16)--/15--15----------

Gb-----------12--10--10-12-
-/12-12---12-----------
------
------------------------

Db-----12------------------
-----------------------
------
------------------------

Ab-/10----10---------------
-----------------------
------
------------------------

Eb-------------------------
-----------------------
------
------------------------


Eb--20b22~~-18---
--20b22~~------
-------------
------20-20-20b22r20-
--18~~
Bb------------20-
----------19~~-
-20~--20b22~-
-b23~----------------
------
Gb---------------
---------------
-------------
---------------------
------
Db---------------
---------------
-------------
---------------------
------
Ab---------------
---------------
-------------
---------------------
------
Eb---------------
---------------
-------------
---------------------
------


  Mark's Solo  - w/ Heavy Dist. (This overlaps as solo 1 ends) 
  - other Guitar plays Chorus					     PH
Eb--15-17-
-18~~--17b18r17-15------
-17~~-15h16p15--15-----------
----------------------------

Bb--------
------------------18-15-
--------------18--18-15-18---
----------------------------

Gb--------
------------------------
------------------------17b19
-14*-12--14-b15r-b15r--12---

Db--------
------------------------
-----------------------------
-------------------------14-

Ab--------
------------------------
-----------------------------
----------------------------

Eb--------
------------------------
-----------------------------
----------------------------


Eb---------------------------15-
-15--18-15-------------------------------

Bb---------------------------15-
--------15-15-18b20-18-15-18-15-------18-

Gb------------------------------
-------------------------------17-15-----

Db--10--8--8-10b11r-8--8h10-0---
------------------------------------17---

Ab-------10----------10---------
-----------------------------------------

Eb------------------------------
-----------------------------------------


                   w/ wah_______________________ 
Eb-------------------3-3h5h6p5p3-----------------
-------------------------

Bb-------------------3-----------6-3h6p4p3-------
-----------------------x-

Gb--17b19-15-17p15-------------------------5-3-3-
-3---5--3---2---3--2---x-

Db-----------------------------------------------
----------x--------------

Ab-----------------------------------------------
-------------------------

Eb-----------------------------------------------
-------------------------


Eb--------------------------
---------15--------
---------------
--------18--------x\-

Bb-------------18-----------
-/18--18----18~~---
-(18~)\2-------
-/18-18---18~-15--x\-

Gb--15-17-15---17b19r-14-15-
-------------------
---------14-15-
---------------------

Db-----------x--------------
-------------------
---------------
---------------------

Ab--------------------------
-------------------
---------------
---------------------

Eb--------------------------
-------------------
---------------
---------------------

				
                            Play 4x                                       TP
Eb-------18-----18--------
--17b19r17-15------
--20b22-20b21------20b22-20b22-15-

Bb--18b20--18b20---18b20~-
-------------18-15-
-------------20-18----------------

Gb------------------------
-------------------
----------------------------------

Db------------------------
-------------------
----------------------------------

Ab------------------------
-------------------
----------------------------------

Eb------------------------
-------------------
----------------------------------


    * Play 2x                         *
Eb--20-15-15-18-15-15-17-15-15-18-15-15-  -20-15-15----15-15-18-15----15-
Bb--------------------------------------  ----------18-------------18----
Gb--------------------------------------  -------------------------------
Db--------------------------------------  -------------------------------
Ab--------------------------------------  -------------------------------
Eb--------------------------------------  -------------------------------


Eb--17-15------15-17-18-17-15--------------------------------------------
-------   
Bb-------18-18---------------18-16-15-18-16-15---------------------------
-------   
Gb--------------------------------------------17-15--15--15p14--14-15-14-
-------  
Db-------------------------------------------------17---------17---------
-/17~~-   
Ab-----------------------------------------------------------------------
-------
Eb-----------------------------------------------------------------------
-------

As solo ends play chorus, fill 1, chorus

Then play Riff 2 2x, and then a similar riff 2x:
Eb---------------
--------------
--------------
--------------

Bb---------------
--------------
--------------
--------------

Gb---------------
--------------
--------------
--------------

Db---------------
--------------
--------------
--------------

Ab--2------------
-1------------
-0------------
-8--8--8--8---

Eb--3--5b6r5b6r5-
-2--5b6r5b6r5-
-1--5b6r5b6r5-
-6--6--5--5---

Guitar 2 plays the interlude notes w/ distortion on during this riff

Riff 1 plays 4x when the interlude notes end on a high Gb (15th fret)

Outro, as Riff 1 ends the 2nd time
w/ warm distortion	tb - tremelo bar dive
Eb------
----------
-------
----------
------------
-------
-------
-------
-------
---

Bb------
----------
-------
----------
------------
--9----
-------
-------
-------
---

Gb--5~~-
--(5~)tb--
--8~~--
--(8~)tb--
--10~~-8h10-
-------
---3-5-
-5b6r5-
-5b6r5-
---
 
Db------
----------
-------
----------
------------
-------
-------
-------
-------
-5-

Ab------
----------
-------
----------
------------
-------
-------
-------
-------
---

Eb------
----------
-------
----------
------------
-------
-------
-------
-------
---


Key:


 /  slide up

 \  slide down

 PM palm mute

 PH pinch harmonic

 h  hammer-on

 p  pull-off

 ~  vibrato

 *  harmonic

 x  Mute note (or rake)

 b  bend (bends with vibrato bar indicated)

 r  release bend

 TP tremelo pick
====================================================
 


/
How To Set Up Higher Praise As Your Home Page
Copyright 1999, Higher Praise HigherPraise,Inc. All rights reserved. Terms of Use

Enjoy A Life Changing Experience

 
 
 
HigherPraise, Higher Praise, HigherPraise, Higher Praise, HigherPraise

Members..Sign Up. LogIn

 
 

Higher Praise Other Sites
 
 

HigherPraise.org/
Praise And Worship
www.higherpraise.org

HigherPraise.net
Christian Resources
www.higherpraise.net

HigherPraiseTube.com
Videos And Audios
www.higherpraisetube.com.


ChristianLyrics.org

Lyrics And Chrords
www.christianlyrics.org

ChristianChordsLyrics

Lyrics And Chrords
www.christianchordslyrics.com

ChristianChordLyrics

Lyrics And Chrords
www.christianchordlyrics.com

WorshipLyrics.org
10.000 Illustrations
www.worshiplyrics.org

WorshipLyrics.net
10.000 Illustrations
www.worshiplyrics.net

PraiseLyrics.com
PowerPoint Lyrics

www.praiselyrics.com

PraiseLyrics.org
PowerPoint Lyrics

www.praiselyrics.org

1GodTube.com
Chistian Videos

www1godtube..com

OneGodTube.com
Chistian Videos

www.onegodtube..com

 

/
Copyright 1999 - 2019, Higher Praise™ HigherPraise™,Inc. All rights reserved. Terms of Use