Higher Praise - Guitar Chords, Lyrics  GuitarTabs -  Praise nad Worship Music And Christian Songs

Higher Praise - Guitar Tabs, Guitar Chords, Lyrics
   Lyrics, Chords And Tabs
   Popular Lyrics Chords Tab
   Power Point Lyrics
   Praise & Worship Music
   Christian Music Videos
   15900 Videos & Audios
   Midi Files
   Worship Questions
   Christmas Chords, Lyrics
   Lyrics, Chords Tabs Rated

Sermon Outlines And Audio Sermons
   9344 Sermon Outlines
   N.T. Sermon Outlines
   O.T. Sermon Outlines
   Special Guest Outlines
   10.000 Illustrations
   Sunday School Studies
   Bible College Studies
   Greatest Preachers
   Bible Research Tools
Audio Sermons
   2895 Audio Sermons
   85 Sermon Videos
   291 Special Guests Serm

   Complete Audio Bible
Higher Praise Sunday School Teaching
   Children's NT Studies
   Children's OT Studies

   98 Children's Midis
   Gospel For Kids Movie
   Children's JESUS Film
Higher Praise Christian Video Library ,Videos
   Christian Television
   TBN TV Live
   15,000 Videos - HP Tube
   712 Youth Music Vids
  Christian Video Library
   Praise Videos #1 & #2
   85 Sermon Videos
   Prophecy Film -Videos
   JESUS Film -Video
   Childrens JESUS Film
   Gospel For Kids Movie
   Passion Of The Christ
   Noah, Sodom, Sinai, Ark
   Tsunami Videos Photos
News And Information
   Testimonies
   Submit Lyrics, Tabs, Serm
   10.000 Illustrations
   Bible College Course
   Clipart & Web Graphics
   Greatest Preachers
   Complete Talking Bible
   Christian Chat Rooms
   Links Church Resource
   HP Statement Of Faith
Download Clipart
   Audio Sermons
   Clipart & Web Graphics
   Church Administration
   Bible Study Software
   Screen Savers Software
   Verse A Day Software
   Educational Games
   Trade Center Photos

   Soft. Search Engine
Higher Praise News
   Current News
    Archived News
   Submit News
   Newsletter   Higher Praise Interact Prayer
   Prayer For All Needs
   
Submit Lyrics, Sermons
   
Contact Higher Praise
   
Advertising 
   Privacy Policy
//
He Died For You,  Click For Answer! This Is Who Jesus Is Video

'
 
0-9 A B C D E F G H I J K L M N O P Q R S T U V W X Y Z
.

//
Click For Printable...Version Of This File
 

Love And Happiness


by Al Green




Song:Love and Happiness
Performed By: Al Green
Tabed By: thegritts

ive been looking for this song for a while and i couldnt find it
so i just figured it out myself....here you go

INTRO

0:00     0:05       0:14     0:17       0:22

------4
-----4----
-7--4---
----------
-----------------

-----4-
-----4----
-9--4---
----------
----4-4-------4--

----4--
-----4----
-7--4---
---4-6p4--
---4---4---------

---6---
4/6--6----
----6---
--6-6---6-
--6-----6---6----

--6----
4/6--6----
----6---
-6--------
-6-------6-6-----

-4-----
2/4--4----
----4---
----------
----------4------


5 KNOCKS

                      SINGING SECTION

0:32                   0:35          0:38      0:40

----7-9-11----------
------------------------
------------------

-/9--------9--------
------------------------
------------------

-------------9-8--- 
-7-7-6h7p6-4---7p6-4-6--
-----7-7-6h7p6-4--

--------------------
------------------------
------------------

--------------------
------------------------
------------------

--------------------
------------------------
------------------


 0:42       0:45      0:47    0:52 do this riff as many times until  0:58

----------
--------
--------
-4---4-4---4-4---4-4---------------

----------
----0---
----4---
-4---4-4---4-4---4-4---------------

TRUMPET---
---1-1--
---1-4--
-4---4-4---4-4---4-4---------------

-FILL-----
--1-----
--1-----
------6-----6-----6----------------

----------
--------
--------
-----------------------------------

----------
--------
--------
-----------------------------------



FROM  0:35 AND ON THIS RIFF IF REPEATED THROUGH THE WHOLE SONG
AS A SECOND GUITAR IN THE BACKGROUD....IT VARY'S A BIT THROUGHOUT
THE SONG BUT IS BASICALLY THE SAME.

AS FOR TIMING GO WITH THE BEAT OF THE SONG FOR THIS PART


-4-4--4---------------------------------------------------------

-4-4--4---------------------------------------------------------

-4-4--4-----6p4-------------------------------------------------

-----6----6----6--REPEAT----------------------------------------

----------------------------------------------------------------

----------------------------------------------------------------


1:26    L  O  V  E  AND   H A  PP I NESS

----------------------------------------------------------------

----------------------------------------------------------------

-9-8-7-THEN DO THE SAME RIFF AS IN 0:35-0:38--------------------

----------------------------------------------------------------

----------------------------------------------------------------

----------------------------------------------------------------



TRUMPET FILL On GUITAR
1:32


-------------------
--------------------------------------------

-------7-----------
-------7------------------------------------

-8-6-8---8-6-4-6-8-
-8-6-8---8-6-4-6-4--------------------------

-------------------
-------------------6-4-6---REPEAT-----------

-------------------
--------------------------------------------

-------------------
--------------------------------------------


ALL THE FILLS AND DIFFERENT RIFFS IN THE SONG THAT U HEAR IN THE GUITAR
THAT I HAVENT WRITTEN THE TIME OUT FOR ARE UP ABOVE...THE FILLS I WROTE UP
ABOVE ARE REPEATED THROUGHOUT THE SONG

EXAMPLE OF THIS
IS AT   4:02 THE RIFF IS THE SAME AS I WROTE  IN 0:35

ENJOY!!!!

BY THEGRITTS
 


/
How To Set Up Higher Praise As Your Home Page
Copyright 1999, Higher Praise HigherPraise,Inc. All rights reserved. Terms of Use

Enjoy A Life Changing Experience

 
 
 
HigherPraise, Higher Praise, HigherPraise, Higher Praise, HigherPraise

Members..Sign Up. LogIn

 
 

Higher Praise Other Sites
 
 

HigherPraise.org/
Praise And Worship
www.higherpraise.org

HigherPraise.net
Christian Resources
www.higherpraise.net

HigherPraiseTube.com
Videos And Audios
www.higherpraisetube.com.


ChristianLyrics.org

Lyrics And Chrords
www.christianlyrics.org

ChristianChordsLyrics

Lyrics And Chrords
www.christianchordslyrics.com

ChristianChordLyrics

Lyrics And Chrords
www.christianchordlyrics.com

WorshipLyrics.org
10.000 Illustrations
www.worshiplyrics.org

WorshipLyrics.net
10.000 Illustrations
www.worshiplyrics.net

PraiseLyrics.com
PowerPoint Lyrics

www.praiselyrics.com

PraiseLyrics.org
PowerPoint Lyrics

www.praiselyrics.org

1GodTube.com
Chistian Videos

www1godtube..com

OneGodTube.com
Chistian Videos

www.onegodtube..com

 

/
Copyright 1999 - 2019, Higher Praise™ HigherPraise™,Inc. All rights reserved. Terms of Use