Higher Praise - Guitar Chords, Lyrics  GuitarTabs -  Praise nad Worship Music And Christian Songs

Higher Praise - Guitar Tabs, Guitar Chords, Lyrics
   Lyrics, Chords And Tabs
   Popular Lyrics Chords Tab
   Power Point Lyrics
   Praise & Worship Music
   Christian Music Videos
   15900 Videos & Audios
   Midi Files
   Worship Questions
   Christmas Chords, Lyrics
   Lyrics, Chords Tabs Rated

Sermon Outlines And Audio Sermons
   9344 Sermon Outlines
   N.T. Sermon Outlines
   O.T. Sermon Outlines
   Special Guest Outlines
   10.000 Illustrations
   Sunday School Studies
   Bible College Studies
   Greatest Preachers
   Bible Research Tools
Audio Sermons
   2895 Audio Sermons
   85 Sermon Videos
   291 Special Guests Serm

   Complete Audio Bible
Higher Praise Sunday School Teaching
   Children's NT Studies
   Children's OT Studies

   98 Children's Midis
   Gospel For Kids Movie
   Children's JESUS Film
Higher Praise Christian Video Library ,Videos
   Christian Television
   TBN TV Live
   15,000 Videos - HP Tube
   712 Youth Music Vids
  Christian Video Library
   Praise Videos #1 & #2
   85 Sermon Videos
   Prophecy Film -Videos
   JESUS Film -Video
   Childrens JESUS Film
   Gospel For Kids Movie
   Passion Of The Christ
   Noah, Sodom, Sinai, Ark
   Tsunami Videos Photos
News And Information
   Testimonies
   Submit Lyrics, Tabs, Serm
   10.000 Illustrations
   Bible College Course
   Clipart & Web Graphics
   Greatest Preachers
   Complete Talking Bible
   Christian Chat Rooms
   Links Church Resource
   HP Statement Of Faith
Download Clipart
   Audio Sermons
   Clipart & Web Graphics
   Church Administration
   Bible Study Software
   Screen Savers Software
   Verse A Day Software
   Educational Games
   Trade Center Photos

   Soft. Search Engine
Higher Praise News
   Current News
    Archived News
   Submit News
   Newsletter   Higher Praise Interact Prayer
   Prayer For All Needs
   
Submit Lyrics, Sermons
   
Contact Higher Praise
   
Advertising 
   Privacy Policy
//
He Died For You,  Click For Answer! This Is Who Jesus Is Video

'
 
0-9 A B C D E F G H I J K L M N O P Q R S T U V W X Y Z
.

//
Click For Printable...Version Of This File
 

Home


by 12 Stones




Gtr I (C G C F A D) - 'Guitar 1'
Gtr II (C G C F A D) - 'Guitar 2'
Gtr III (E A D G B E) - 'Chorus High Notes'


 Intro
  Q=100
  G5A5    G5A5G5  F5        D5    G5A5    G5A5G5  F5        G5
 6/8
  Gtrs I, II
  S E E S E E E   S E E S E E E   S E E S E E E   S E E S E E E

---------------
---------------
---------------
---------------

---------------
---------------
---------------
---------------

---------------
---------------
---------------
---------------

-7-9-9-9-7-9-7-
-5-5-5-5-5-2-2-
-7-9-9-9-7-9-7-
-5-5-5-5-5-7-7-

-7-9-9-9-7-9-7-
-5-5-5-5-5-2-2-
-7-9-9-9-7-9-7-
-5-5-5-5-5-7-7-

-7h9-9-9-7-9-7-
-5-5-5-5-5-2-2-
-7h9-9-9-7-9-7-
-5-5-5-5-5-7-7-



  G5A5    G5A5G5  D5              G5A5    G5A5G5  F5        E5
  Gtr I
  S E E S E E E   S E E S E E E   S E E S E E E   S E E S E E E

---------------
---------------
---------------
----------------

---------------
---------------
---------------
----------------

---------------
---------------
---------------
----------------

-7-9-9-9-7-9-7-
-2-2-2-2-2-5-5-
-7-9-9-9-7-9-7-
-5-5-5-5-5-4-4--

-7-9-9-9-7-9-7-
-2-2-2-2-2-5-5-
-7-9-9-9-7-9-7-
-5-5-5-5-5-4-4--

-7h9-9-9-7-9-7-
-2-2-2-2-2-5-5-
-7h9-9-9-7-9-7-
-5-5-5-5-5-4-4--



 Gtr II

 S E E S E E E   S E E S E E E   S E E S E E E   S E E S E E E

---------------
---------------
---------------
----------------

---------------
---------------
---------------
----------------

---------------
-9-9-9-9-9-7-7-
---------------
----------------

-7-9-9-9-7-9-7-
-9-9-9-9-9-7-7-
-7-9-9-9-7-9-7-
-5-5-5-5-5-4-4--

-7-9-9-9-7-9-7-
-7-7-7-7-7-5-5-
-7-9-9-9-7-9-7-
-5-5-5-5-5-4-4--

-7h9-9-9-7-9-7-
---------------
-7h9-9-9-7-9-7-
-5-5-5-5-5-4-4--



   Verse
    G5A5                     G5A5
    S E E. Q  E   W       3x S E E. Q  E   W

--------------
---------
-------------
-------------------------


o-------------
--------o
-------------
-------------------------


--------------
---------
-------------
-------------------------


--7-9-9-------
---------
-7-9-9-------
-------------------------


o-7-9-9-------
--------o
-7-9-9-------
-------------------------


--7h9-9-------
---------
-7h9-9-------
-------------------------



   Gtr II

                                               
--3--
  
--3--

   W             W       3x W             Q  E S. S. S. S. S. S.

--------------
---------
-------------
-------------------------


o-------------
--------o
-------------
-------------------------


--------------
---------
-------------
------9--9--9--9--9--9---


--------------
---------
-------------
-------------------------


o-------------
--------o
-------------
-------------------------


--------------
---------
-------------
-------------------------



  G5A5
  S E E.   Q     E     W

--------------------
-----------------

--------------------
-----------------

--------------------
-----------------

-7-9-9--------------
-----------------

-7-9-9--------------
-----------------

-7h9-9--------------
-----------------



 Q      E S E E   S   S E E S S E E S

--------------------
-----------------

--------------------
-----------------

----------7-7-7---7-
-6-6-6-6-6-2-2-2-

--------------------
-----------------

--------------------
-----------------

--------------------
-----------------



  G5A5
  S E E.   Q     E     W

--------------------
-------------------

--------------------
-------------------

--------------------
-------------------

-7-9-9--------------
-------------------

-7-9-9--------------
-------------------

-7h9-9--------------
-------------------



 Q      E S E E   S   S E E S E  S  S E

--------------------
-------------------

--------------------
---------5-(5)-2-5-

----------7-7-7---7-
-6-6-6-6-----------

--------------------
-------------------

--------------------
-------------------

--------------------
-------------------



  G5A5
  S E E.   Q     E     W

--------------------
-----------------

--------------------
-----------------

--------------------
-----------------

-7-9-9--------------
-----------------

-7-9-9--------------
-----------------

-7h9-9--------------
-----------------



 Q      E S E E   S   S E E S S E E S

--------------------
-----------------

--------------------
-----------------

----------7-7-7---7-
-6-6-6-6-6-2-2-2-

--------------------
-----------------

--------------------
-----------------

--------------------
-----------------



  G5A5        C5            G5        F5  E5
  S E E   S S  E  E  S    S E E S E   E   E

----------------------
----------------------

----------------------
----------------------

----------------------
----------------------

-7-9-9---9-9-12-12-12-
-12-7-7-7-7---5---4---

-7-9-9---9-9-12-12-12-
-12-7-7-7-7---5---4---

-7h9-9---9-9h12-12-12-
-12p7-7-7-7---5---4---



 Q     E   S  E  E  S    S E E S S S S S S S

----------------------
----------------------

----------------------
----------5-5-5-5-5-5-

-----------7--7--7--7-
--6-6-6-6-------------

----------------------
----------------------

----------------------
----------------------

----------------------
----------------------



 Chorus
  $
  G5A5    G5A5G5  F5        D5    G5A5    G5A5G5  F5        G5
  Gtrs I, II
  S E E S E E E   S E E S E E E   S E E S E E E   S E E S E E E

---------------
---------------
---------------
----------------

---------------
---------------
---------------
----------------

---------------
---------------
---------------
----------------

-7-9-9-9-7-9-7-
-5-5-5-5-5-2-2-
-7-9-9-9-7-9-7-
-5-5-5-5-5-7-7--

-7-9-9-9-7-9-7-
-5-5-5-5-5-2-2-
-7-9-9-9-7-9-7-
-5-5-5-5-5-7-7--

-7h9-9-9-7-9-7-
-5-5-5-5-5-2-2-
-7h9-9-9-7-9-7-
-5-5-5-5-5-7-7--



 Gtr III

 S E E S E E E   S E E S E E E   S E E S E E E   S E E S E E E

---------------
---------------
---------------
----------------

---------------
-8-8-8-8-8-8-8-
---------------
-8-8-8-8-8-8-8--

-9-9-9-9-9-9-9-
---------------
-9-9-9-9-9-9-9-
----------------

---------------
---------------
---------------
----------------

---------------
---------------
---------------
----------------

---------------
---------------
---------------
----------------



                                                           To Coda
  G5A5    G5A5G5  D5        F5    G5A5    G5A5G5  F5            E5
  Gtrs I, II
  S E E S E E E   S E E S E E E   S E E S E E E    S  E  E  S E E E

---------------
---------------
---------------
--------------------

---------------
---------------
---------------
--------------------

---------------
---------------
---------------
--------------------

-7-9-9-9-7-9-7-
-2-2-2-2-2-5-5-
-7-9-9-9-7-9-7-
--5--5--5--5-5-4-4--

-7-9-9-9-7-9-7-
-2-2-2-2-2-5-5-
-7-9-9-9-7-9-7-
--5--5--5--5-5-4-4--

-7h9-9-9-7-9-7-
-2-2-2-2-2-5-5-
-7h9-9-9-7-9-7-
--5--5--5--5-5-4-4--



 S E E S E E E   S E E S E E E   S E E S E E E    S  E  E  S E E E

---------------
---------------
---------------
--------------------

---------------
-8-8-8-8-8-8-8-
---------------
--------------------

-9-9-9-9-9-9-9-
---------------
-9-9-9-9-9-9-9-
-10-10-10-10-9-9-9--

---------------
---------------
---------------
--------------------

---------------
---------------
---------------
--------------------

---------------
---------------
---------------
--------------------



 Post Chorus
  G5A5                                   G5A5
  S E E.   Q     E     W                 S E E.   Q     E

--------------------
-----------------
--------------------

--------------------
-----------------
--------------------

--------------------
-----------------
--------------------

-7-9-9--------------
-----------------
-7-9-9--------------

-7-9-9--------------
-----------------
-7-9-9--------------

-7h9-9--------------
-----------------
-7h9-9--------------



 Gtr II

 Q      E S E E   S   S E E S S E E S   Q      E S E E   S

--------------------
-----------------
--------------------

--------------------
-----------------
--------------------

----------7-7-7---7-
-6-6-6-6-6-2-2-2-
----------7-7-7---7-

--------------------
-----------------
--------------------

--------------------
-----------------
--------------------

--------------------
-----------------
--------------------



  W

----------------------------------------

----------------------------------------

----------------------------------------

----------------------------------------

----------------------------------------

----------------------------------------



 S E E S S     S    S    S    S    S

----------------------------------------

---------6b6.5-6b7==6pb7-6pb7-6pb7-6pb7-

-6-6-6-6--------------------------------

----------------------------------------

----------------------------------------

----------------------------------------



   Verse 2
    G5A5      C5    F5G5      D5    G5A5      C5    F5G5      D5
    Gtrs I, II
    S E E S E E E   S E E S E E E   S E E S E E E   S E E S E E E

----------------
---------------
---------------
----------------


o---------------
---------------
---------------
---------------o


----------------
---------------
---------------
----------------


--7-9-9-9-9-0-0-
-5-7-7-7-7-2-2-
-7-9-9-9-9-0-0-
-5-7-7-7-7-2-2--


o-7-9-9-9-9-0-0-
-5-7-7-7-7-2-2-
-7-9-9-9-9-0-0-
-5-7-7-7-7-2-2-o


--7h9-9-9-9-0-0-
-5h7-7-7-7-2-2-
-7h9-9-9-9-0-0-
-5h7-7-7-7-2-2--



  G5G#A5      G5C5    F5F#G5      F5D5
  Gtrs I, II
  S S S E S S S E E   S S S E S S S E E

-------------------
-------------------

-------------------
-------------------

-------------------
-------------------

-7-8-9-9-9-9-7-0-0-
-5-6-7-7-7-7-5-2-2-

-7-8-9-9-9-9-7-0-0-
-5-6-7-7-7-7-5-2-2-

-7h8h9-9-9-9-7-0-0-
-5h6h7-7-7-7-5-2-2-



  G5G#A5      G5C5    F5F#G5      F5D5
  S S S E S S S E E   S S S E S S S E S S

-------------------
----------------------

-------------------
----------------------

-------------------
----------------------

-7-8-9-9-9-9-7-0-0-
-5-6-7-7-7-7-5-2-x-x--

-7-8-9-9-9-9-7-0-0-
-5-6-7-7-7-7-5-2-x-x--

-7h8h9-9-9-9-7-0-0-
-5h6h7-7-7-7-5-2-x-x--



  G5G#A5      G5C5    F5F#G5      F5D5D5
  Gtrs I, II
  S S S E S S S E E   S S S E S S S E E

-------------------
-------------------

-------------------
-------------------

-------------------
-------------------

-7-8-9-9-9-9-7-0-0-
-5-6-7-7-7-7-5-2-2-

-7-8-9-9-9-9-7-0-0-
-5-6-7-7-7-7-5-2-2-

-7h8h9-9-9-9-7-0-0-
-5h6h7-7-7-7-5-2-2-



                              D.S. al Coda
  G5G#A5      G5C5    F5F#G5      F5D5/G
  S S S E S S S E E   S S S E S S S S S S S

-------------------
-----------------------

-------------------
-----------------------

-------------------
-----------------------

-7-8-9-9-9-9-7-0-0-
-5-6-7-7-7-7-5-9-9-9-9-

-7-8-9-9-9-9-7-0-0-
-5-6-7-7-7-7-5-7-7-7-7-

-7h8h9-9-9-9-7-0-0-
-5h6h7-7-7-7-5-7-7-7-7-



 Solo
  &
  Gtr I
  S S S S S S S S S S S S   S S S S S S S S S S S S

-------------------------
-------------------------

-------------------------
-------------------------

-------------------------
-------------------------

-------------------------
-------------------------

-0-2-2-2-2-2-3-2-0-2-0-2-
-0-2-2-2-2-2-3-2-0-2-0-2-

-------------------------
-------------------------



  S S S S S S S S S S S S   S S S S S S S S S S S S

-------------------------
----------------------------

-------------------------
----------------------------

-------------------------
----------------------------

-------------------------
----------------------------

-0-2-2-2-2-2-3-2-0-2-0-2-
-0-2-2-2-2-2-3-2-0-2-0-2----

-------------------------
----------------------------



  G5 A5           Bb5A5G5 A5 G5 A5   G5 A5           Bb5A5G5 A5 G5 A5
  Gtr I
   S S  S  S S  S  S S  S  S  S  S    S S  S  S S  S  S S  S  S  S  S

----------------------------------
----------------------------------

----------------------------------
----------------------------------

----------------------------------
----------------------------------

--7-9--9--9-9--9-10-9--7--9--7--9-
--7-9--9--9-9--9-10-9--7--9--7--9-

--7-9--9--9-9--9-10-9--7--9--7--9-
--7-9--9--9-9--9-10-9--7--9--7--9-

--7h9--9--9-9--9-10p9--7h=9--7h=9-
--7h9--9--9-9--9-10p9--7h=9--7h=9-



 Gtr II

  E    S  E    S  E    S  S  S  S    E    S  E    S  E    S  S  S  S

----------------------------------
----------------------------------

-12---12-12---12-12---12-12-12-12-
----------------------------------

----------------------------------
----------------------------------

----------------------------------
-12---12-12---12-12---12-12-12-12-

----------------------------------
----------------------------------

----------------------------------
----------------------------------



  G5 A5           Bb5A5G5 A5 G5 A5   G5A5        Bb5A5G5A5G5A5
   S S  S  S S  S  S S  S  S  S  S   S S S S S S  S S S S S S

----------------------------------
--------------------------

----------------------------------
--------------------------

----------------------------------
--------------------------

--7-9--9--9-9--9-10-9--7--9--7--9-
-7-9-9-9-9-9-10-9-7-9-7-9-

--7-9--9--9-9--9-10-9--7--9--7--9-
-7-9-9-9-9-9-10-9-7-9-7-9-

--7h9--9--9-9--9-10p9--7h=9--7h=9-
-7h9-9-9-9-9-10p9-7h9-7h9-



  E    S  E    S  E    S  S  S  S   E   S E   S  E   E   E

----------------------------------
--------------------------

----------------------------------
--------------------------

-11---11-11---11-11---11-11-11-11-
--------------------------

----------------------------------
-9---9-9---9--9---9---9---

----------------------------------
--------------------------

----------------------------------
--------------------------



 Bridge
  F5              D5              A5              E5
  Gtrs I, II
  E. E S E. E S   E. E S E. E S   E. E S E. E S   E. E S E E E

---------------
---------------
---------------
---------------

---------------
---------------
---------------
---------------

---------------
---------------
-4--4-4-4--4-4-
---------------

-5--5-5-5--5-5-
-2--2-2-2--2-2-
-4--4-4-4--4-4-
-4--4-4-4-4-4--

-5--5-5-5--5-5-
-2--2-2-2--2-2-
-2--2-2-2--2-2-
-4--4-4-4-4-4--

-5--5-5-5--5-5-
-2--2-2-2--2-2-
---------------
-4--4-4-4-4-4--



  F5              G5              D5                       E5
  Gtrs I, II
  E. E S E. E S   E. E S E. E S   E. E S E. E S   E. E S E E E

---------------
---------------
---------------
---------------

---------------
---------------
---------------
---------------

---------------
---------------
-4--4-4-4--4-4-
-4--4-4-4------

-5--5-5-5--5-5-
-7--7-7-7--7-7-
-2--2-2-2--2-2-
-2--2-2-2-4-4--

-5--5-5-5--5-5-
-7--7-7-7--7-7-
-2--2-2-2--2-2-
-2--2-2-2-4-4--

-5--5-5-5--5-5-
-7--7-7-7--7-7-
-2--2-2-2--2-2-
-2--2-2-2-4-4--



  F5              D5              A5              E5
  Gtrs I, II
  E. E S E. E S   E. E S E. E S   E. E S E. E S   E. E S E E E

---------------
---------------
---------------
---------------

---------------
---------------
---------------
---------------

---------------
---------------
-4--4-4-4--4-4-
---------------

-5--5-5-5--5-5-
-2--2-2-2--2-2-
-4--4-4-4--4-4-
-4--4-4-4-4-4--

-5--5-5-5--5-5-
-2--2-2-2--2-2-
-2--2-2-2--2-2-
-4--4-4-4-4-4--

-5--5-5-5--5-5-
-2--2-2-2--2-2-
---------------
-4--4-4-4-4-4--



  F5              G5
  E. E S E. E S   E E E S S S S S S

---------------
-------------------

---------------
-------------------

---------------
-------------------

-5--5-5-5--5-5-
-7-7-7-9-9-9-9-9-9-

-5--5-5-5--5-5-
-7-7-7-------------

-5--5-5-5--5-5-
-7-7-7-------------



   Chorus x 2
    G5A5    G5A5G5  F5        D5    G5A5    G5A5G5  F5        G5
    Gtrs I, II
    S E E S E E E   S E E S E E E   S E E S E E E   S E E S E E E

----------------
---------------
---------------
---------------


o---------------
---------------
---------------
---------------


----------------
---------------
---------------
---------------


--7-9-9-9-7-9-7-
-5-5-5-5-5-2-2-
-7-9-9-9-7-9-7-
-5-5-5-5-5-7-7-


o-7-9-9-9-7-9-7-
-5-5-5-5-5-2-2-
-7-9-9-9-7-9-7-
-5-5-5-5-5-7-7-


--7h9-9-9-7-9-7-
-5-5-5-5-5-2-2-
-7h9-9-9-7-9-7-
-5-5-5-5-5-7-7-



   Gtr III

   S E E S E E E   S E E S E E E   S E E S E E E   S E E S E E E

----------------
---------------
---------------
---------------


o---------------
-8-8-8-8-8-8-8-
---------------
-8-8-8-8-8-8-8-


--9-9-9-9-9-9-9-
---------------
-9-9-9-9-9-9-9-
---------------


----------------
---------------
---------------
---------------


o---------------
---------------
---------------
---------------


----------------
---------------
---------------
---------------



  G5A5    G5A5G5  D5        F5    G5A5    G5A5G5  F5            E5
  S E E S E E E   S E E S E E E   S E E S E E E    S  E  E  S E E E

---------------
---------------
---------------
---------------------


---------------
---------------
---------------
--------------------o


---------------
---------------
---------------
---------------------


-7-9-9-9-7-9-7-
-2-2-2-2-2-5-5-
-7-9-9-9-7-9-7-
--5--5--5--5-5-4-4---


-7-9-9-9-7-9-7-
-2-2-2-2-2-5-5-
-7-9-9-9-7-9-7-
--5--5--5--5-5-4-4--o


-7h9-9-9-7-9-7-
-2-2-2-2-2-5-5-
-7h9-9-9-7-9-7-
--5--5--5--5-5-4-4---



 S E E S E E E   S E E S E E E   S E E S E E E    S  E  E  S E E E

---------------
---------------
---------------
---------------------


---------------
-8-8-8-8-8-8-8-
---------------
--------------------o


-9-9-9-9-9-9-9-
---------------
-9-9-9-9-9-9-9-
-10-10-10-10-9-9-9---


---------------
---------------
---------------
---------------------


---------------
---------------
---------------
--------------------o


---------------
---------------
---------------
---------------------



   Ending
    G5A5        G5A5          G5A5        Bb5A5G5A5G5A5
    Gtr I
    S S S S S S S S S S S S   S S S S S S  S S S S S S

--------------------------
----------------------------


o-------------------------
---------------------------o


--------------------------
----------------------------


--7-9-9-9-9-9-7-9-9-9-9-9-
-7-9-9-9-9-9-10-9-7-9-7-9---


o-7-9-9-9-9-9-7-9-9-9-9-9-
-7-9-9-9-9-9-10-9-7-9-7-9--o


--7h9-9-9-9-9-7h9-9-9-9-9-
-7h9-9-9-9-9-10p9-7h9-7h9---



  G5 A5           Bb5A5G5 A5 G5 A5   G5 A5           Bb5A5G5 A5 G5 A5
   S S  S  S S  S  S S  S  S  S  S    S S  S  S S  S  S S  S  S  S  S

----------------------------------
----------------------------------

----------------------------------
----------------------------------

----------------------------------
----------------------------------

--7-9--9--9-9--9-10-9--7--9--7--9-
--7-9--9--9-9--9-10-9--7--9--7--9-

--7-9--9--9-9--9-10-9--7--9--7--9-
--7-9--9--9-9--9-10-9--7--9--7--9-

--7h9--9--9-9--9-10p9--7h=9--7h=9-
--7h9--9--9-9--9-10p9--7h=9--7h=9-



 Gtr II

  E    S  E    S  E    S  S  S  S    E    S  E    S  E    S  S  S  S

----------------------------------
----------------------------------

-12---12-12---12-12---12-12-12-12-
----------------------------------

----------------------------------
----------------------------------

----------------------------------
-12---12-12---12-12---12-12-12-12-

----------------------------------
----------------------------------

----------------------------------
----------------------------------



  G5 A5           Bb5A5G5 A5 G5 A5   G5A5        Bb5A5G5A5G5A5
   S S  S  S S  S  S S  S  S  S  S   S S S S S S  S S S S S S   Q   H

----------------------------------
--------------------------
----------*

----------------------------------
--------------------------
----------*

----------------------------------
--------------------------
----------*

--7-9--9--9-9--9-10-9--7--9--7--9-
-7-9-9-9-9-9-10-9-7-9-7-9-
----------*

--7-9--9--9-9--9-10-9--7--9--7--9-
-7-9-9-9-9-9-10-9-7-9-7-9-
-2\-------*

--7h9--9--9-9--9-10p9--7h=9--7h=9-
-7h9-9-9-9-9-10p9-7h9-7h9-
----------*



  E    S  E    S  E    S  S  S  S   E   S E   S  E   E   E     W

----------------------------------
--------------------------
----------*

----------------------------------
--------------------------
----------*

-11---11-11---11-11---11-11-11-11-
--------------------------
----------*

----------------------------------
-9---9-9---9--9---9---9---
----------*

----------------------------------
--------------------------
----------*

----------------------------------
--------------------------
----------*





--------------------------------------------------------------------------------


Duration Legend
---------------
W - whole; H - half; Q - quarter; E - 8th; S - 16th; T - 32nd; X - 64th; a - acciaccatura
+ - note tied to previous; . - note dotted; .. - note double dotted
Uncapitalized letters represent notes that are staccato (1/2 duration)
Irregular groupings are notated above the duration line
Duration letters will always appear directly above the note/fret number it represents the
duration for.  Duration letters with no fret number below them represent rests.  Multi-
bar rests are notated in the form Wxn, where n is the number of bars to rest for.  Low
melody durations appear below the staff

Tablature Legend
----------------
 h   - hammer-on
 p   - pull-off
 b   - bend
 pb  - pre-bend
 r   - bend release (if no number after the r, then release immediately)
 /\  - slide into or out of (from/to "nowhere")
 s   - legato slide
 S   - shift slide
 - natural harmonic
[n]  - artificial harmonic
n(n) - tapped harmonic
 ~   - vibrato
 tr  - trill
 T   - tap
 TP  - trem. picking
 PM  - palm muting
\n/  - tremolo bar dip; n = amount to dip
 \n  - tremolo bar down
 n/  - tremolo bar up
/n\  - tremolo bar inverted dip
 =   - hold bend; also acts as connecting device for hammers/pulls
 <> - volume swell (louder/softer)
 x   - on rhythm slash represents muted slash
 o   - on rhythm slash represents single note slash

Misc Legend
-----------
 
  - bar

  - double bar

o - repeat start
o
 - repeat end
*
  - double bar (ending)
 :  - bar (freetime)
 $  - Segno
 &  - Coda
Tempo markers -  = BPM(8/16=s8/s16), where s8 = swing 8ths, s16 = swing 16ths



 


/
How To Set Up Higher Praise As Your Home Page
Copyright 1999, Higher Praise HigherPraise,Inc. All rights reserved. Terms of Use

Enjoy A Life Changing Experience

 
 
 
HigherPraise, Higher Praise, HigherPraise, Higher Praise, HigherPraise

Members..Sign Up. LogIn

 
 

Higher Praise Other Sites
 
 

HigherPraise.org/
Praise And Worship
www.higherpraise.org

HigherPraise.net
Christian Resources
www.higherpraise.net

HigherPraiseTube.com
Videos And Audios
www.higherpraisetube.com.


ChristianLyrics.org

Lyrics And Chrords
www.christianlyrics.org

ChristianChordsLyrics

Lyrics And Chrords
www.christianchordslyrics.com

ChristianChordLyrics

Lyrics And Chrords
www.christianchordlyrics.com

WorshipLyrics.org
10.000 Illustrations
www.worshiplyrics.org

WorshipLyrics.net
10.000 Illustrations
www.worshiplyrics.net

PraiseLyrics.com
PowerPoint Lyrics

www.praiselyrics.com

PraiseLyrics.org
PowerPoint Lyrics

www.praiselyrics.org

1GodTube.com
Chistian Videos

www1godtube..com

OneGodTube.com
Chistian Videos

www.onegodtube..com

 

/
Copyright 1999 - 2019, Higher Praise™ HigherPraise™,Inc. All rights reserved. Terms of Use