Higher Praise - Guitar Chords, Lyrics  GuitarTabs -  Praise nad Worship Music And Christian Songs

Higher Praise - Guitar Tabs, Guitar Chords, Lyrics
   Lyrics, Chords And Tabs
   Popular Lyrics Chords Tab
   Power Point Lyrics
   Praise & Worship Music
   Christian Music Videos
   15900 Videos & Audios
   Midi Files
   Worship Questions
   Christmas Chords, Lyrics
   Lyrics, Chords Tabs Rated

Sermon Outlines And Audio Sermons
   9344 Sermon Outlines
   N.T. Sermon Outlines
   O.T. Sermon Outlines
   Special Guest Outlines
   10.000 Illustrations
   Sunday School Studies
   Bible College Studies
   Greatest Preachers
   Bible Research Tools
Audio Sermons
   2895 Audio Sermons
   85 Sermon Videos
   291 Special Guests Serm

   Complete Audio Bible
Higher Praise Sunday School Teaching
   Children's NT Studies
   Children's OT Studies

   98 Children's Midis
   Gospel For Kids Movie
   Children's JESUS Film
Higher Praise Christian Video Library ,Videos
   Christian Television
   TBN TV Live
   15,000 Videos - HP Tube
   712 Youth Music Vids
  Christian Video Library
   Praise Videos #1 & #2
   85 Sermon Videos
   Prophecy Film -Videos
   JESUS Film -Video
   Childrens JESUS Film
   Gospel For Kids Movie
   Passion Of The Christ
   Noah, Sodom, Sinai, Ark
   Tsunami Videos Photos
News And Information
   Testimonies
   Submit Lyrics, Tabs, Serm
   10.000 Illustrations
   Bible College Course
   Clipart & Web Graphics
   Greatest Preachers
   Complete Talking Bible
   Christian Chat Rooms
   Links Church Resource
   HP Statement Of Faith
Download Clipart
   Audio Sermons
   Clipart & Web Graphics
   Church Administration
   Bible Study Software
   Screen Savers Software
   Verse A Day Software
   Educational Games
   Trade Center Photos

   Soft. Search Engine
Higher Praise News
   Current News
    Archived News
   Submit News
   Newsletter   Higher Praise Interact Prayer
   Prayer For All Needs
   
Submit Lyrics, Sermons
   
Contact Higher Praise
   
Advertising 
   Privacy Policy
//
He Died For You,  Click For Answer! This Is Who Jesus Is Video

'
 
0-9 A B C D E F G H I J K L M N O P Q R S T U V W X Y Z
.

//
Click For Printable...Version Of This File
 

How To Save A Life


by The Fray




How To Save A Life Tab by The Fray

First time at writing down a tab/chords. Let me know where you think I may have gone
I'm sure you will :P

Timming 4/4

I have my guitar dropped one full note so I play this with the Capo on the 5th fret. But
you have standard tuning just stick the capo on the 3rd :)

There is one chord I am not sure of the name I have put as "D(c slidedown 2)"
Basically play a standard C chord but slide it down 2 frets and don't play your bottom E
(the bass E :P )

**UPDATE**
Just noticed once this had been put up that the Dsus4/F# might been a bit confusing if 
highlight it. This may be because I can't read music and hence doing it by ear, I may 
not named the chord right.

The chord Dsus4/F# is meant to be played as Dsus4 with your thumb (or finger which ever 
prefer) on the bass E string, second fret. Hope that makes sense :P

Intro/Bridge 1
E---------------------------------------------

B--8---3-3-3---10---3-3-3---12---3-3-3---8--10

G---------------------------------------------

D---------------------------------------------

A---------------------------------------------

E---------------------------------------------


Verse 1
G                    Dsus4/F#
Step one you say we need to talk
    Em7                 Dsus4/F#           G
He walks you say sit down itís just a talk
             Dsus4/F#           Em7
He smiles politely back at you
             Dsus4/F#        G
You stare politely right on through
             Dsus/F#        Em7
Some sort of window to your right
           Dsus4/F#          G
As he goes left and you stay right
            Dsus4/F#          Em7
Between the lines of fear and blame
                 Dsus4/F#
And you begin to wonder why you came


Chorus
  C            D(C slidedown 2)Em
Where did I go wrong, I lost a friend
          G            D
Somewhere along in the bitterness
 C                      D(C slidedown2) Em
And I would have stayed up with you all night
             G     D      G    (Dsus4/F# Em Dsus4/F#)
Had I known how to save a life

Bridge 1
E---------------------------------------------

B--8---3-3-3---10---3-3-3---12---3-3-3---8--10

G---------------------------------------------

D---------------------------------------------

A---------------------------------------------

E---------------------------------------------


Verse 2
G                 Dsus4/F#
Let him know that you know best
 Em7                Dsus4/F#
Cause after all you do know best
G                Dsus4/F#
Try to slip past his defense
     Em7           Dsus4/F#
Without granting innocence
G          Dsus4/F#        Em7
Lay down a list of what is wrong
           Dsus4/F#
The things youíve told him all along
G                  Dsus4/F#
And pray to God he hears you
Em7                Dsus4/F#
And pray to God he hears you

Chorus
C              D(C slidedown 2)Em
Where did I go wrong, I lost a friend
            G               D
Somewhere along in the bitterness
    C                   D(C slidedown 2)Em
And I would have stayed up with you all night
             G     D      G     (Dsus4/F#
Dsus4/F#)
Had I known how to save a life

Bridge 1
E---------------------------------------------

B--8---3-3-3---10---3-3-3---12---3-3-3---8--10

G---------------------------------------------

D---------------------------------------------

A---------------------------------------------

E---------------------------------------------


Verse 2
G                Dsus4/F#
As he begins to raise his voice
    Em7             Dsus4/F#           G
You lower yours and grant him one last choice
                Dsus4/F#
Drive until you lose the road
Em7                           Dsus4/F#
Or break with the ones youíve followed
G              Dsus4/F#
He will do one of two things
Em7              Dsus4/F#
He will admit to everything
G                  Dsus4/F#
Or heíll say heís just not the same
Em7                 Dsus4/F#
And youíll begin to wonder why you came

Chorus
  C             D(C slidedown 2)Em
Where did I go wrong, I lost a friend
            G              D
Somewhere along in the bitterness
    C                   D(C slidedown 2)Em
And I would have stayed up with you all night
             G     D
Had I known how to save a life

Chorus
  C            D(C slidedown 2)Em
Where did I go wrong, I lost a friend
            G               D
Somewhere along in the bitterness
    C                   D(C slidedown 2) Em
And I would have stayed up with you all night
             G     D      G    (Dsus4/F# Em Dsus4/F#)
Had I known how to save a life

Bridge  1                      How To Save A Life...
E--------------------------------------------------

B--8---3-3-3---10---3-3-3---12---3-3-3---8--10-----

G--------------------------------------------------

D--------------------------------------------------

A--------------------------------------------------

E--------------------------------------------------


Bridge 2                       How to save a Life...
E--------------------------------------------------

B--3-3-3---1--0--------------3-3-3---1--0----------

G--------2-------0-----------------2-----0---------

D--------------------------------------------------

A--------------------------------------------------

E--------------------------------------------------

Chorus
  C            D(C slidedown 2)Em
Where did I go wrong, I lost a friend
            G               D
Somewhere along in the bitterness
    C                   D(C slidedown 2)Em
And I would have stayed up with you all night
             G     D/F#     G
Had I known how to save a life

Chorus
  C            D(C slidedown 2)Em
Where did I go wrong, I lost a friend
            G               D
Somewhere along in the bitterness
    C                   D(C slidedown 2)Em
And I would have stayed up with you all night
             G     D      G
Had I known how to save a life

(Dsus4/F# Em Dsus4/F# G)

Bridge 1                       How To save A Life...
E--------------------------------------------------

B--8---3-3-3---10---3-3-3---12---3-3-3---8--10---3-

G--------------------------------------------------

D--------------------------------------------------

A--------------------------------------------------

E--------------------------------------------------


Bridge 2                       How to save a Life...
E--------------------------------------------------

B--3-3-3---1--0--------------3-3-3---1--0----------

G--------2-------0-----------------2-----0---------

D--------------------------------------------------

A--------------------------------------------------

E--------------------------------------------------


Bridge 3
E--------------------------------------------------

B--8---3-3-3---10---3-3-3---12---3-3-3---7--10---8-

G--------------------------------------------------

D--------------------------------------------------

A--------------------------------------------------

E--------------------------------------------------

 


/
How To Set Up Higher Praise As Your Home Page
Copyright 1999, Higher Praise HigherPraise,Inc. All rights reserved. Terms of Use

Enjoy A Life Changing Experience

 
 
 
HigherPraise, Higher Praise, HigherPraise, Higher Praise, HigherPraise

Members..Sign Up. LogIn

 
 

Higher Praise Other Sites
 
 

HigherPraise.org/
Praise And Worship
www.higherpraise.org

HigherPraise.net
Christian Resources
www.higherpraise.net

HigherPraiseTube.com
Videos And Audios
www.higherpraisetube.com.


ChristianLyrics.org

Lyrics And Chrords
www.christianlyrics.org

ChristianChordsLyrics

Lyrics And Chrords
www.christianchordslyrics.com

ChristianChordLyrics

Lyrics And Chrords
www.christianchordlyrics.com

WorshipLyrics.org
10.000 Illustrations
www.worshiplyrics.org

WorshipLyrics.net
10.000 Illustrations
www.worshiplyrics.net

PraiseLyrics.com
PowerPoint Lyrics

www.praiselyrics.com

PraiseLyrics.org
PowerPoint Lyrics

www.praiselyrics.org

1GodTube.com
Chistian Videos

www1godtube..com

OneGodTube.com
Chistian Videos

www.onegodtube..com

 

/
© Copyright 1999 - 2019, Higher Praise™ HigherPraise™,Inc. All rights reserved. Terms of Use