Higher Praise - Guitar Chords, Lyrics  GuitarTabs -  Praise nad Worship Music And Christian Songs

Higher Praise - Guitar Tabs, Guitar Chords, Lyrics
   Lyrics, Chords And Tabs
   Popular Lyrics Chords Tab
   Power Point Lyrics
   Praise & Worship Music
   Christian Music Videos
   15900 Videos & Audios
   Midi Files
   Worship Questions
   Christmas Chords, Lyrics
   Lyrics, Chords Tabs Rated

Sermon Outlines And Audio Sermons
   9344 Sermon Outlines
   N.T. Sermon Outlines
   O.T. Sermon Outlines
   Special Guest Outlines
   10.000 Illustrations
   Sunday School Studies
   Bible College Studies
   Greatest Preachers
   Bible Research Tools
Audio Sermons
   2895 Audio Sermons
   85 Sermon Videos
   291 Special Guests Serm

   Complete Audio Bible
Higher Praise Sunday School Teaching
   Children's NT Studies
   Children's OT Studies

   98 Children's Midis
   Gospel For Kids Movie
   Children's JESUS Film
Higher Praise Christian Video Library ,Videos
   Christian Television
   TBN TV Live
   15,000 Videos - HP Tube
   712 Youth Music Vids
  Christian Video Library
   Praise Videos #1 & #2
   85 Sermon Videos
   Prophecy Film -Videos
   JESUS Film -Video
   Childrens JESUS Film
   Gospel For Kids Movie
   Passion Of The Christ
   Noah, Sodom, Sinai, Ark
   Tsunami Videos Photos
News And Information
   Testimonies
   Submit Lyrics, Tabs, Serm
   10.000 Illustrations
   Bible College Course
   Clipart & Web Graphics
   Greatest Preachers
   Complete Talking Bible
   Christian Chat Rooms
   Links Church Resource
   HP Statement Of Faith
Download Clipart
   Audio Sermons
   Clipart & Web Graphics
   Church Administration
   Bible Study Software
   Screen Savers Software
   Verse A Day Software
   Educational Games
   Trade Center Photos

   Soft. Search Engine
Higher Praise News
   Current News
    Archived News
   Submit News
   Newsletter   Higher Praise Interact Prayer
   Prayer For All Needs
   
Submit Lyrics, Sermons
   
Contact Higher Praise
   
Advertising 
   Privacy Policy
//
He Died For You,  Click For Answer! This Is Who Jesus Is Video

'
 
0-9 A B C D E F G H I J K L M N O P Q R S T U V W X Y Z
.

//
Click For Printable...Version Of This File
 

Decode


by Paramore




Paramore
Decode
Twilight Soundtrack
2008


Key: C#

Tuning: Standard EADGBe

Chords used:
Bbm - x13321
F# -  244322
C# -  x46664
G# -  466544
Ebm - x68876
Fm -  133111


Intro: Bbm

Guitar 2:
e
-------------------------------------9-----------

B
-11----------11----------11------------11----11--

G
----10----10----10----10----10----10------10-----

D
-------11----------11----------11----------------
 x2
A
-------------------------------------------------

E
-------------------------------------------------


e
----------------------------------13---------

B
-11----9----11----9----11----9----------9----

G
---------------------------------------------

D
----11---11----11---11----11---11----11---11-

A
---------------------------------------------

E
---------------------------------------------


e
-----------------------------11-

B
-11----9----11----9----11-------

G
--------------------------------

D
----11---11----11---11----11----

A
--------------------------------

E
--------------------------------



Verse 1:
F#
  How can I decide what’s right
Ebm                          Bbm
  when you’re clouding up my mind
I can’t win your losing
Fm
fight all the time
F#
  How can I ever own what’s mine
Ebm                         Bbm
  when you’re always taking sides
But you won’t take away
   Fm                F#  Ebm
my pride no not this time
         Bbm Fm
Not this time


Chorus 1:
F#
  How did we get here
Ebm
  When I used
            Bbm    Fm
to know you so well
F#
  But how did we get here
Ebm             Bbm Fm
  I think I know


Interlude: Bbm--C#-G#--Fm(sudden stop)


Verse 2:
F#
  The truth is hiding in your
Ebm
eyes and its hanging
        Bbm
on your tongue
                   Fm
Just boiling in my blood
                          F#
but you think that I cant see
What kind of man that you
Ebm                    Bbm
are if you’re a man at all
Well I will figure
         Fm        F# Ebm
this one out on my own
                         Bbm
I’m screaming I love you so
Fm
  My thoughts you can’t decode


(Repeat Chorus 1)


Lead Solo: F#--Ebm--Bbm--Fm-- x2

Guitar 2:
                 F#                                 Ebm
e
---------------------------13-----
---------------------------13-----

B
-13h14p13-----13h14p13------------
-13h14p13-----13h14p13------------

G
----------15-----------15------15-
----------15-----------15------15-

D
----------------------------------
----------------------------------

A
----------------------------------
----------------------------------

E
----------------------------------
----------------------------------


                Bbm                     Fm
e
--------------------------------
------------

B
-13h14p13-----------------------
------------

G
----------15--15-13-13-13-13-13-
------------

D
--------------------------------
-10--11--13-

A
--------------------------------
------------

E
--------------------------------
------------


                 F#                                 Ebm
e
---------------------------13-----
---------------------------13-----

B
-13h14p13-----13h14p13------------
-13h14p13-----13h14p13------------

G
----------15-----------15------15-
----------15-----------15------15-

D
----------------------------------
----------------------------------

A
----------------------------------
----------------------------------

E
----------------------------------
----------------------------------


     Bbm        Fm
e
---------
-16--18---------

B
-13---14-
---------14--13-

G
---------
----------------

D
---------
----------------

A
---------
----------------

E
---------
----------------



Bridge:
       F#             Ebm
Do you see what we’ve done
We’re gonna make such
Bbm         Fm
fools of ourselves
       F#             Ebm
Do you see what we’ve done
We’re gonna make such
Bbm         F#
fools of ourselves


Interlude: F#--Ebm--Bbm--Fm--


Chorus 2:
F#
  How did we get here
Ebm
  When I still
         Bbm    Fm
love you so yeah  yeah
F#
  How did we get here
Ebm
  When I still
         Bbm Fm
love you so


Outro:
          F#  G#--Ebm--Bbm-C#
I think I know
F#--Bbm--Fm          F#  G#--Ebm--Bbm-C#
           I think I know
F#--Bbm--Fm F#     G# Ebm      Bbm-C#
            There is  something
F# Bbm Fm
I  see in you
F# G#    Ebm    Bbm-C#
It might kill me
  F#      Bbm   Fm  Ebm(hold)
I want it to be true
 


/
How To Set Up Higher Praise As Your Home Page
Copyright 1999, Higher Praise HigherPraise,Inc. All rights reserved. Terms of Use

Enjoy A Life Changing Experience

 
 
 
HigherPraise, Higher Praise, HigherPraise, Higher Praise, HigherPraise

Members..Sign Up. LogIn

 
 

Higher Praise Other Sites
 
 

HigherPraise.org/
Praise And Worship
www.higherpraise.org

HigherPraise.net
Christian Resources
www.higherpraise.net

HigherPraiseTube.com
Videos And Audios
www.higherpraisetube.com.


ChristianLyrics.org

Lyrics And Chrords
www.christianlyrics.org

ChristianChordsLyrics

Lyrics And Chrords
www.christianchordslyrics.com

ChristianChordLyrics

Lyrics And Chrords
www.christianchordlyrics.com

WorshipLyrics.org
10.000 Illustrations
www.worshiplyrics.org

WorshipLyrics.net
10.000 Illustrations
www.worshiplyrics.net

PraiseLyrics.com
PowerPoint Lyrics

www.praiselyrics.com

PraiseLyrics.org
PowerPoint Lyrics

www.praiselyrics.org

1GodTube.com
Chistian Videos

www1godtube..com

OneGodTube.com
Chistian Videos

www.onegodtube..com

 

/
© Copyright 1999 - 2019, Higher Praise™ HigherPraise™,Inc. All rights reserved. Terms of Use