Higher Praise - Guitar Chords, Lyrics  GuitarTabs -  Praise nad Worship Music And Christian Songs

Higher Praise - Guitar Tabs, Guitar Chords, Lyrics
   Lyrics, Chords And Tabs
   Popular Lyrics Chords Tab
   Power Point Lyrics
   Praise & Worship Music
   Christian Music Videos
   15900 Videos & Audios
   Midi Files
   Worship Questions
   Christmas Chords, Lyrics
   Lyrics, Chords Tabs Rated

Sermon Outlines And Audio Sermons
   9344 Sermon Outlines
   N.T. Sermon Outlines
   O.T. Sermon Outlines
   Special Guest Outlines
   10.000 Illustrations
   Sunday School Studies
   Bible College Studies
   Greatest Preachers
   Bible Research Tools
Audio Sermons
   2895 Audio Sermons
   85 Sermon Videos
   291 Special Guests Serm

   Complete Audio Bible
Higher Praise Sunday School Teaching
   Children's NT Studies
   Children's OT Studies

   98 Children's Midis
   Gospel For Kids Movie
   Children's JESUS Film
Higher Praise Christian Video Library ,Videos
   Christian Television
   TBN TV Live
   15,000 Videos - HP Tube
   712 Youth Music Vids
  Christian Video Library
   Praise Videos #1 & #2
   85 Sermon Videos
   Prophecy Film -Videos
   JESUS Film -Video
   Childrens JESUS Film
   Gospel For Kids Movie
   Passion Of The Christ
   Noah, Sodom, Sinai, Ark
   Tsunami Videos Photos
News And Information
   Testimonies
   Submit Lyrics, Tabs, Serm
   10.000 Illustrations
   Bible College Course
   Clipart & Web Graphics
   Greatest Preachers
   Complete Talking Bible
   Christian Chat Rooms
   Links Church Resource
   HP Statement Of Faith
Download Clipart
   Audio Sermons
   Clipart & Web Graphics
   Church Administration
   Bible Study Software
   Screen Savers Software
   Verse A Day Software
   Educational Games
   Trade Center Photos

   Soft. Search Engine
Higher Praise News
   Current News
    Archived News
   Submit News
   Newsletter   Higher Praise Interact Prayer
   Prayer For All Needs
   
Submit Lyrics, Sermons
   
Contact Higher Praise
   
Advertising 
   Privacy Policy
//
He Died For You,  Click For Answer! This Is Who Jesus Is Video

'
 
0-9 A B C D E F G H I J K L M N O P Q R S T U V W X Y Z
.

//
Click For Printable...Version Of This File
 

Heard That Sound


by Mxpx




Band = Mxpx
Song = Heard That Sound
Album = Panic

Eb-------------- = Play this chord for the whole line
B--------------- = Play this chord for the whole line
/ = Slide up the fret
\ = Slide down the fret

This is one of the best song I have heard by Mxpx ever

Fist part of the first verse starts off clean
Then distortion come in on the second F#m, C#, Eb & B
But you only strum these chords once

1st Verse
F#m                      C#     
Without a window to see through
Eb                       B
I did my time in hear without you
F#m                      C#
Slept on the floor down in LBC
Eb                           B
Meet me back home under the marquee

Now play this little pre solo bit with 
The chords above
e
-----------------------------------------------------------------------

B
-----------------------------------------------------------------------

G
-------11----------------11------------------11---------------11-------

D
-11/13----15\11----11/13----15-13\11---11/13----15\11---11/13----13\11-

A
-----------------------------------------------------------------------

E
-----------------------------------------------------------------------


F#m                        C#
It seems like misery loves misery
Eb                         B
My favourite they keep me company
F#m                        C#
So many memories come down to this
Eb                         B
I may be lost but I'm not hopless


Chorus
F#m                  C#
I heard that sound a mile away
Eb                     B
I heard that sound a mile away
F#m                          C#
All those things I wish I could say
Eb----------------------------                     
I heard that sound a mile away
                B
          A mile away
          
e
-----------------------------------------------------------------------

B
-----------------------------------------------------------------------

G
-------11----------------11------------------11---------------11-------

D
-11/13----15\11----11/13----15-13\11---11/13----15\11---11/13----13\11-

A
-----------------------------------------------------------------------

E
-----------------------------------------------------------------------


         

Bass and Drums only dor the first two lines of this verse.
2nd Verse
Came in like static off the tv
This kinda thing never goes easy
F#m                            C#
I meant to tell you but you were gone
Eb                                    B
I tried to get it right I got it all wrong


Chorus
F#m                  C#
I heard that sound a mile away
Eb                     B
I heard that sound a mile away
F#m                          C#
All those things I wish I could say
Eb----------------------------                     
I heard that sound a mile away
                B     
          A mile away

Intro to the bridge
Eb     C#      B

Bridge
Eb              C#
Sat outside the show
B-----------------------------------
With nowhere else nowhere else to go
Eb                C#
Doors shut, can't say
B-----------------------------
It sure does sound, good to me

Pick slide straight after the bridge

Chorus
F#m                  C#
I heard that sound a mile away
Eb                     B
I heard that sound a mile away
F#m                          C#
All those things I wish I could say
Eb----------------------------                     
I heard that sound a mile away
                B
          A mile away
e
-----------------------------------------------------------------------

B
-----------------------------------------------------------------------

G
-------11----------------11------------------11---------------11-------

D
-11/13----15\11----11/13----15-13\11---11/13----15\11---11/13----13\11-

A
-----------------------------------------------------------------------

E
-----------------------------------------------------------------------

  B     F#m    
A mile away

Hold that last F#m  for about 30 seconds

If ya's have any comments send "em" to me at this addess

Good luck with the song and I hope ya's enjoy it.


 


/
How To Set Up Higher Praise As Your Home Page
Copyright 1999, Higher Praise HigherPraise,Inc. All rights reserved. Terms of Use

Enjoy A Life Changing Experience

 
 
 
HigherPraise, Higher Praise, HigherPraise, Higher Praise, HigherPraise

Members..Sign Up. LogIn

 
 

Higher Praise Other Sites
 
 

HigherPraise.org/
Praise And Worship
www.higherpraise.org

HigherPraise.net
Christian Resources
www.higherpraise.net

HigherPraiseTube.com
Videos And Audios
www.higherpraisetube.com.


ChristianLyrics.org

Lyrics And Chrords
www.christianlyrics.org

ChristianChordsLyrics

Lyrics And Chrords
www.christianchordslyrics.com

ChristianChordLyrics

Lyrics And Chrords
www.christianchordlyrics.com

WorshipLyrics.org
10.000 Illustrations
www.worshiplyrics.org

WorshipLyrics.net
10.000 Illustrations
www.worshiplyrics.net

PraiseLyrics.com
PowerPoint Lyrics

www.praiselyrics.com

PraiseLyrics.org
PowerPoint Lyrics

www.praiselyrics.org

1GodTube.com
Chistian Videos

www1godtube..com

OneGodTube.com
Chistian Videos

www.onegodtube..com

 

/
Copyright 1999 - 2019, Higher Praise™ HigherPraise™,Inc. All rights reserved. Terms of Use