Higher Praise - Guitar Chords, Lyrics  GuitarTabs -  Praise nad Worship Music And Christian Songs

Higher Praise - Guitar Tabs, Guitar Chords, Lyrics
   Lyrics, Chords And Tabs
   Popular Lyrics Chords Tab
   Power Point Lyrics
   Praise & Worship Music
   Christian Music Videos
   15900 Videos & Audios
   Midi Files
   Worship Questions
   Christmas Chords, Lyrics
   Lyrics, Chords Tabs Rated

Sermon Outlines And Audio Sermons
   9344 Sermon Outlines
   N.T. Sermon Outlines
   O.T. Sermon Outlines
   Special Guest Outlines
   10.000 Illustrations
   Sunday School Studies
   Bible College Studies
   Greatest Preachers
   Bible Research Tools
Audio Sermons
   2895 Audio Sermons
   85 Sermon Videos
   291 Special Guests Serm

   Complete Audio Bible
Higher Praise Sunday School Teaching
   Children's NT Studies
   Children's OT Studies

   98 Children's Midis
   Gospel For Kids Movie
   Children's JESUS Film
Higher Praise Christian Video Library ,Videos
   Christian Television
   TBN TV Live
   15,000 Videos - HP Tube
   712 Youth Music Vids
  Christian Video Library
   Praise Videos #1 & #2
   85 Sermon Videos
   Prophecy Film -Videos
   JESUS Film -Video
   Childrens JESUS Film
   Gospel For Kids Movie
   Passion Of The Christ
   Noah, Sodom, Sinai, Ark
   Tsunami Videos Photos
News And Information
   Testimonies
   Submit Lyrics, Tabs, Serm
   10.000 Illustrations
   Bible College Course
   Clipart & Web Graphics
   Greatest Preachers
   Complete Talking Bible
   Christian Chat Rooms
   Links Church Resource
   HP Statement Of Faith
Download Clipart
   Audio Sermons
   Clipart & Web Graphics
   Church Administration
   Bible Study Software
   Screen Savers Software
   Verse A Day Software
   Educational Games
   Trade Center Photos

   Soft. Search Engine
Higher Praise News
   Current News
    Archived News
   Submit News
   Newsletter   Higher Praise Interact Prayer
   Prayer For All Needs
   
Submit Lyrics, Sermons
   
Contact Higher Praise
   
Advertising 
   Privacy Policy
//
He Died For You,  Click For Answer! This Is Who Jesus Is Video

'
 
0-9 A B C D E F G H I J K L M N O P Q R S T U V W X Y Z
.

//
Click For Printable...Version Of This File
 

The Anatomy Of The Tongue In Cheek Album Bass Tab


by Relient K




The Anatomy of Tongue in Cheek Album by Relient K
Standard Tuning


Track 01
-Kickoff-

(Intro)
G:---------------------------------------

D:---------------------------------------

A:---------------------------------------

E:0--1--2--3--4--5--6--7-7--7-7--7-7--7-7


G:----------------------------

D:2-------2-------------------

A:--2-2-2---2-2-2--4-2-0-4-2--

E:---------------------------0


G:--------------------

D:--------------------

A:4--2--0--2----------

E:------------0-0-0--0



Track 02
-Pressing on_

(Intro)
G:-------------

D:-------------
  x3
A:4------------

E:----4---6---2


G:-------------

D:-------------
  x4
A:-------------

E:9---8---6---2


G:--------------------------------

D:--------------------------------

A:4-6-6--4-4-6-6--4---------------

E:------------------1-2-2--1-1-2-2


G:------------------------------------

D:------------------------------------

A:4-----4-6-6--4-4-6-6----------------

E:---4------------------1-2-2--1-1-2-2


(Chorus)
G:-------------
      
--------

D:-------------
  x4  
--------

A:4------------
      
--------

E:----4---6---2
      
2------4


Intro x1

G:--------------------------------

D:--------------------------------

A:4-6-6--4-4-6-6--4---------------

E:------------------1-2-2--1-1-2-2


G:------------------------------------

D:------------------------------------

A:4-----4-6-6--4-4-6-6----------------

E:---4------------------1-2-2--1-1-2-2


Chorus x4

G:--------

D:--------

A:--------

E:2------4


Chorus x2

(Guitar)

G:-------------

D:-------------
  
A:4------------

E:----4---6---2


Chorus x3
G:--------

D:--------

A:--------

E:2------4


Chorus x4
G:--------

D:--------

A:--------

E:2------4


G:------------------------------------------------

D:------------------------------------------------

A:4(16)----------------------4-------------------4

E:------2-2-2-2--1/4-4-4-4-6---2-2-2-2-1/4-4-4-4--


G:----------------------

D:----------------------

A:------------------4(8)

E:2(8)--4(8)--6(8)------


(Outro)
G:--------

D:--------

A:-------4

E:2---4---




Track 03
-Sadie Hawkins Dance-

(Intro)
G:--------------------------

D:---------------------1-1-1
  x4
A:1-1-1---------------------

E:-------1-1-1--3-3-3-------


(Verse I)
G:----------------------

D:---------1-----------1

A:1-----------1---------

E:---1--3--------1--3---


(Chorus)
G:-----------------------------

D:---------------------------1~

A:1-1-1-1----------------------

E:---------1-1-1-1--3-3-3-3----


G:----------------------------------

D:---------------------------1-1-1-1

A:1-1-1-1---------------------------

E:---------1-1-1-1--3-3-3-3---------


G:----------------------

D:------------------1(6)
  x2
A:1(6)------------------

E:------1(6)--3(6)------


G:-----------------------------

D:---------------------------1~

A:1-1-1-1----------------------

E:---------1-1-1-1--3-3-3-3----


G:----------------------------------

D:---------------------------1-1-1-1

A:1-1-1-1---------------------------

E:---------1-1-1-1--3-3-3-3---------


G:----------------------

D:------------------1(6)
  x1
A:1(6)------------------

E:------1(6)--3(6)------


(Verse II)
G:----------------------

D:---------1-----------1
  x3
A:1-----------1---------

E:---1--3--------1--3---


G:----------------------

D:------------------1(6)
  x2
A:1(6)------------------

E:------1(6)--3(6)------


G:-----------------------------

D:---------------------------1~

A:1-1-1-1----------------------

E:---------1-1-1-1--3-3-3-3----


G:----------------------------------

D:---------------------------1-1-1-1

A:1-1-1-1---------------------------

E:---------1-1-1-1--3-3-3-3---------


G:-----------------------------

D:---------------------------1~

A:1-1-1-1----------------------

E:---------1-1-1-1--3-3-3-3----


(Outro)
G:-------------------------

D:-------------------------

A:1-1-1-1------------------

E:---------1-1-1-1--3-3-3-3




Track 04
-Down in Flames-

(Intro)
G:--------------------------

D:-------1-1-1---------1-1-1

A:--------------2-2-2-------

E:2-2-2---------------------


G:--------------------------

D:1-1------------4-4-4-4-4-3
  x2
A:-----1-1--2-2-------------

E:--------------------------


G:----------------------

D:1-----------1---------

A:---1--2--------1--2---

E:---------2-----------2


G:-------------------------------------

D:-------------------------------------

A:2-2-2-1-2--4-4-4-3-4---------------3~

E:----------------------2-2-2-2-1-2----


G:--------------------------------

D:--------------------------------

A:2(8)--4(8)--5(8)--2-2-----2-2---

E:----------------------2~------2~


(Chorus)
G:--------------------------------------------

D:1(8)--------1(8)--------------1(8)----------

A:------2(8)--------1(8)--2-----------4(8)--3~

E:---------------------------2----------------


G:--------------------------------

D:--------------------------------

A:2(8)--4(8)--5(8)--2-2-----2-2---

E:----------------------2~------2~


G:----------------

D:4------------1--
  x4
A:--4-4--2-2-2---4

E:----------------


G:----------------------

D:1-----------1---------

A:---1--2--------1--2---

E:---------2-----------2


G:-------------------------------------

D:-------------------------------------

A:2-2-2-1-2--4-4-4-3-4---------------3~

E:----------------------2-2-2-2-1-2----


G:--------------------------------

D:--------------------------------

A:2(8)--4(8)--5(8)--2-2-----2-2---

E:----------------------2~------2~


(Chorus)
G:--------------------------------------------

D:1(8)--------1(8)--------------1(8)----------

A:------2(8)--------1(8)--2-----------4(8)--3~

E:---------------------------2----------------


G:--------------------------------

D:--------------------------------

A:2(8)--4(8)--5(8)--2-2-----2-2---

E:----------------------2~------2~


G:----------------

D:4------------1--
  x6
A:--4-4--2-2-2---4

E:----------------


G:------------------------------------------

D:------------------------------------------
  x5
A:6(8)--5(8)--4(8)--3(8)--2(8)--------4(7)-6

E:------------------------------2(8)--------




Track 05
-Maybe its Maybeline-

G:-------------------------------------

D:-------------------------------------

A:7-7-7-7-7-7-7-0-5-5-5-5-5-5-5-0-4-4-4

E:-------------------------------------


(Verse)
G:----------------

D:-------------5--
 x4
A:-0-5-0-2-0-5---5

E:----------------


G:-------------------------------------

D:-------------------------------------
  x4
A:10-10-10-10-10-10-10-10-5--10-9-7-7-9

E:-------------------------------------


G:---------------------------------------

D:----------------------------5-5-5-5-5-5

A:5-5-5-5-5-5-5-5-0-0-0-0-0-0------------

E:---------------------------------------


G:------------------

D:------------------

A:-1-1-1-1-3-3-3-3-5

E:------------------


(Verse)
G:----------------

D:-------------5--
  x4
A:-0-5-0-2-0-5---5

E:----------------


G:-------------------------------------

D:-------------------------------------
 x3
A:10-10-10-10-10-10-10-10-5--10-9-7-7-9

E:-------------------------------------


G:---------------------------------------

D:----------------------------5-5-5-5-5-5
  x3
A:5-5-5-5-5-5-5-5-0-0-0-0-0-0------------

E:---------------------------------------


G:------------------

D:------------------

A:-1-1-1-1-3-3-3-3-5

E:------------------


G:---------------------------------------------------

D:---------------------------------------------------
  x3
A:5-5-5-5-5-5-5-5-0-0-0-0-0-0-0-0-----------0-0-0-0-0

E:--------------------------------3-3-3-3-3----------


G:---------------------------------------

D:----------------------------5-5-5-5-5-5
 
A:5-5-5-5-5-5-5-5-0-0-0-0-0-0------------

E:---------------------------------------


G:------------------

D:------------------

A:-1-1-1-1-3-3-3-3-5

E:------------------




Track 06
-Breakdown-

(Intro)
G:----------------

D:----------------

A:5----2----5--7-7

E:----------------


G:------------------------------------

D:------------------------------------
  x2
A:-0-0-0-0-0-4-5-5-5-5-5-2-2-2-2-5-7-7

E:------------------------------------


G:---------------

D:---------------

A:0-0-0-0-0-0-0-0

E:---------------


G:------------------------------------

D:------------------------------------

A:-0-0-0-0-0-4-5-5-5-5-5-2-2-2-2-5-7-7

E:------------------------------------


G:---------------

D:---------------

A:0-0-0-0-0-0-0-0

E:---------------


G:------------------

D:-------------2-2-2
  x4
A:-5-7-0-2-2-2------

E:------------------


G:---------------------------

D:----------------------2-2-2
  x4
A:5-5-5-5-7-7-7-7-0-0-0------

E:---------------------------


(1.54)
G:---------

D:---------
  x5
A:0-------5

E:---------


G:----------------

D:----------------

A:5----2----5--7-7

E:----------------


G:------------------------------------

D:------------------------------------
  
A:-0-0-0-0-0-4-5-5-5-5-5-2-2-2-2-5-7-7

E:------------------------------------


G:------------------------------

D:-----------------------2-2-2-2
  x10
A:-2-2-2-2-5-5-5-5-0-0-0--------

E:------------------------------




Track 07
-Those words are not enough-

(Intro)
G:-------------------------------------------------------------

D:-------------------------------------------------------------
  x2
A:-----2-2-2-4-4-4-2-----0-4-2-0------2-2-2-4-4-4-2-0-0-0-0-0-0

E:-0-0---------------0-0----------0-0--------------------------


G:------------------------------------------------

D:------------------------------------------------

A:-4-4-4-4-4-4-4-4--------------------------------

E:-----------------4-4-4-4-4-4-4-4-5-5-5-5-5-5-5-5


G:--------

D:--------

A:-------2

E:-0------


G:-----------------------------------------------

D:-----------------------------------------------
  x3
A:4-4-4-4-4-4-2-2-2-2-2-2-5-5-5-5-5-5-2-2-2-2-2-2

E:-----------------------------------------------


(Chorus)
G:----------------------------

D:----------------------------
  x2
A:----------------------------

E:-0-0-0-0-0-0-4-4-4-4-5-5-5-5


G:-------------------------------------------------------------

D:-------------------------------------------------------------

A:-----2-2-2-4-4-4-2-----0-4-2-0------2-2-2-4-4-4-2-0-0-0-0-0-0

E:-0-0---------------0-0----------0-0--------------------------


G:------------------

D:------------------

A:-4-4-----------2-2

E:-----4-4-5-0-0----


G:-------------------------------------------------------

D:-------------------------------------------------------

A:-------------------------------------------------------

E:4-4-4-4-4-4-5-5-5-5-5-5-0-0-0-0-0-0-0-0-7-7-7-7-7-7-7-7


(Chorus)
G:----------------------------

D:----------------------------
  x2
A:----------------------------

E:-0-0-0-0-0-0-4-4-4-4-5-5-5-5


G:-----------------------------------------------

D:-----------------------------------------------
  x2
A:4-4-4-4-4-4-2-2-2-2-2-2-5-5-5-5-5-5-2-2-2-2-2-2

E:-----------------------------------------------


G:----------------------------

D:----------------------------
  x8
A:----------------------------

E:-0-0-0-0-0-0-4-4-4-4-5-5-5-5


G:--------------------------------------

D:--------------------------------------
  x2
A:--------------------------------------

E:-0-0-0-0-0-4-4-4-4-4-5-5-5-5-0-0-0-0-0




Track 08
-For the Moments I Feel Faint-
No Bass


Track 09
-Lion Wilson-
No Bass


Track 10
-I'm Lion-o-

(Intro)
G:----------
----------
----------
----------

D:------2--2
------2--2
------2--2
----------

A:----------
0--0------
2--2------
--2----2--

E:0--0------
----------
----------
----------


G:----------
----------
----------
----------

D:2--2--2--2
----------
----------
----------
  x4
A:----------
0--0--0--0
4--4--4--4
2--2--2--2

E:----------
----------
----------
----------


G:----------
----------
----------
----------

D:------2--2
------2--2
------2--2
----------
  x2
A:----------
0--0------
2--2------
--2----2--

E:0--0------
----------
----------
----------


G:----------
----------
----------
----------

D:2--2--2--2
----------
----------
----------
  x4
A:----------
0--0--0--0
4--4--4--4
2--2--2--2

E:----------
----------
----------
----------


G:----------
----------
----------
----------

D:------2--2
------2--2
------2--2
----------
  x4
A:----------
0--0------
2--2------
--2----2--

E:0--0------
----------
----------
----------


G:----------
----------
----------
----------

D:----------
----------
----------
----------
  x2
A:2--2--2--2
4--4--4--4
----------
2--2--2--2

E:----------
----------
4--4--4--4
----------


G:----------
----------
----------
----------

D:----------
----------
----------
----------
  x4
A:4--4--4--4
0--0--0--0
----------
2--2--2--2

E:----------
----------
0--0--0--0
----------


G:----------
----------
----------
----------

D:------2--2
------2--2
------2--2
----------
  x3
A:----------
0--0------
2--2------
--2----2--

E:0--0------
----------
----------
----------


G:----------
----------
----------
----------

D:2--2--2--2
----------
----------
----------
  x4
A:----------
0--0--0--0
4--4--4--4
2--2--2--2

E:----------
----------
----------
----------


G:----------
----------
----------
----------

D:------2--2
------2--2
------2--2
----------
  x6
A:----------
0--0------
2--2------
--2----2--

E:0--0------
----------
----------
----------


(Outro)
G:----------
----------
----------
----------

D:----------
----------
----------
----------

A:----------
----------
----------
----------

E:0--0--0--0
0--0--0--0
----------
----------




Track 11
-What Have You Been Doing Lately-

(Intro)
G:-------------------
      
-----------------------

D:----7-6-4----------
 -x2  
------------5-5-5-2-2-2

A:-----------7-5-4---
      
2-2-2-5-5-5------------

E:-5----------------7
      
-----------------------


G:-------------------

D:----7-6-4----------
  x2
A:-----------7-5-4---

E:-5----------------7


G:-----------------------

D:------------5-5-5-2-2-2

A:2-2-2-5-5-5------------

E:-----------------------


G:------------------

D:-7----------------
  x2
A:----7--5---5-5-5-5

E:------------------


G:---------------------------------

D:-7-7-7-7-------------------------

A:---------7-7-7-7--5-5-5-5-5-5-5-5

E:---------------------------------


G:----------

D:----------
  x2
A:5--7--9---

E:---------5


G:----------------------------------------------

D:----------------------------------------------

A:5-5-5-5--7-7-7-7--9-9-9-9-----------5-5-5-5--7

E:---------------------------5-5-5-5------------


G:-------------------
      
-----------------------

D:----7-6-4----------
 -x2  
------------5-5-5-2-2-2

A:-----------7-5-4---
      
2-2-2-5-5-5------------

E:-5----------------7
      
-----------------------


G:-------------------
      
-----------------------

D:----7-6-4----------
 -x2  
------------5-5-5-2-2-2

A:-----------7-5-4---
      
2-2-2-5-5-5------------

E:-5----------------7
      
-----------------------


G:------------------

D:-7----------------
  x2
A:----7--5---5-5-5-5

E:------------------


G:---------------------------------

D:-7-7-7-7-------------------------

A:---------7-7-7-7--5-5-5-5-5-5-5-5

E:---------------------------------


G:----------

D:----------
  x2
A:5--7--9---

E:---------5


G:----------------------------------------------

D:----------------------------------------------

A:5-5-5-5--7-7-7-7--9-9-9-9-----------5-5-5-5--7

E:---------------------------5-5-5-5------------


G:---------------------------------------
      
--------------------

D:------------------6-6-6-6--7-7-7-7--7-6
 -x1  
--------------------
 -x2
A:-0-0-0-0--5-5-5-5----------------------
      
9-9-9-9-9-9-9-9--7-7

E:---------------------------------------
      
--------------------


G:---------------------------------------
      
--------------------

D:------------------6-6-6-6--7-7-7-7--7-6
 -x1  
--------------------
 -x1
A:-0-0-0-0--5-5-5-5----------------------
      
9-9-9-9-9-9-9-9--7-7

E:---------------------------------------
      
--------------------


G:---------------------------------------
      
--------------------

D:------------------6-6-6-6--7-7-7-7--7-6
 -x1  
--------------------
 -x1
A:-0-0-0-0--5-5-5-5----------------------
      
9-9-9-9-9-9-9-9--7-7

E:---------------------------------------
      
--------------------


G:-------------------
      
-----------------------

D:----7-6-4----------
 -x2  
------------5-5-5-2-2-2

A:-----------7-5-4---
      
2-2-2-5-5-5------------

E:-5----------------7
      
-----------------------


G:-------------------
      
-----------------------

D:----7-6-4----------
 -x2  
------------5-5-5-2-2-2

A:-----------7-5-4---
      
2-2-2-5-5-5------------

E:-5----------------7
      
-----------------------


G:---------------------------------------
      
--------------------

D:------------------6-6-6-6--7-7-7-7--7-6
 -x1  
--------------------
 -x2
A:-0-0-0-0--5-5-5-5----------------------
      
9-9-9-9-9-9-9-9--7-7

E:---------------------------------------
      
--------------------


G:---------------------------------------
      
--------------------

D:------------------6-6-6-6--7-7-7-7--7-6
 -x1  
--------------------
 -x1
A:-0-0-0-0--5-5-5-5----------------------
      
9-9-9-9-9-9-9-9--7-7

E:---------------------------------------
      
--------------------

 
G:---------------------------------------
      
--------------------

D:------------------6-6-6-6--7-7-7-7--7-6
 -x1  
--------------------
 -x2
A:-0-0-0-0--5-5-5-5----------------------
      
9-9-9-9-9-9-9-9--7-7

E:---------------------------------------
      
--------------------




Track 12
-May the Horse be With You-

(Intro)
G:------------------------

D:7------------4-4-4-4----
  x6
A:--7--5--5(8)---------7-7

E:------------------------


G:------------------------

D:7-----------------------

A:--5--------5-5-5-5-7-7--

E:----7--7(8)-------------


G:---------------------

D:---------------------

A:-----5(8)-------5-7--

E:5(8)------7(8)------5


G:----------------------------------

D:----------------------------------

A:5-5-5-5--5-5-5-5--5-5-5-5--5-5-5-5

E:----------------------------------


G:----------------------------

D:----------------------------
  x2
A:-----5(8)-------------------

E:7(8)------5--0-0-0-0-0-0-0-0


G:----------------------------------------

D:----------------------------------------

A:5-5-5--7-7-7-----------6-6-6--5-5-5-5--7

E:--------------5-5-5-5-------------------


(Chorus) May the horse be with you...
G:-----------------------------------------------

D:----4-------------------4----------------------

A:--7---4--5-5-5-5--7---7---4--5-5-5-5--7-7-7-7--

E:5-------------------5-------------------------5


G:------------------------

D:7------------4-4-4-4----
  x2
A:--7--5--5(8)---------7-7

E:------------------------


G:------------------------

D:7-----------------------
  x2
A:--5--------5-5-5-5-7-7--

E:----7--7(8)-------------


G:----------------------------------

D:----------------------------------

A:5-5-5-5--5-5-5-5--5-5-5-5--5-5-5-5

E:----------------------------------


G:----------------------------

D:----------------------------
  x2
A:-----5(8)-------------------

E:7(8)------5--0-0-0-0-0-0-0-0


G:----------------------------------------

D:----------------------------------------

A:5-5-5--7-7-7-----------6-6-6--5-5-5-5--7

E:--------------5-5-5-5-------------------



G:-----------------------------------------------

D:----4-------------------4----------------------

A:--7---4--5-5-5-5--7---7---4--5-5-5-5--7-7-7-7--

E:5-------------------5-------------------------5




Track 13
-My Way or the Highway-

(Intro)
G:--------------------

D:--------------------
  x4
A:-----------8-8-8-8-8

E:8-8-8-8-8-----------


G:-----------------------------------------------

D:-----------------------------------------------

A:8-10------------8(8)--10(8)---------8(8)--10(8)

E:------8--8(16)---------------8(16)-------------


G:--------------------------------------------

D:---------------------------------2----------

A:5-5-5-5-5--2-2-2-2-2--3-3-3-3-3-----5--3-5-3

E:--------------------------------------------


G:-----------------------------------------

D:-----------------------------------------

A:3-3-3-3-3--------------------------------

E:----------3-3-3-3-3--1-1-1-1-1--3-3-3-3-3


G:-----------------------------------------

D:-----------------------------------------
  x2
A:-----------------------------------------

E:5-5-5--5--3-3-3--3--1-1-1--1--1--1-1-1--1


G:-------------------------------

D:----7-------7-------7-------7--

A:--8---8---8---8---8---8---8---8

E:8-------8-------8-------8------


G:-----------------------------------------------

D:-----------------------------------------------

A:8-10------------8(8)--10(8)---------8(8)--10(8)

E:------8--8(16)---------------8(16)-------------


G:--------------------------------------------

D:---------------------------------2----------

A:5-5-5-5-5--2-2-2-2-2--3-3-3-3-3-----5--3-5-3

E:--------------------------------------------


G:-------------------------------

D:----7-------7-------7-------7--

A:--8---8---8---8---8---8---8---8

E:8-------8-------8-------8------


G:-----------------------------------------

D:-----------------------------------------
  
A:-----------------------------------------

E:5-5-5--5--3-3-3--3--1-1-1--1--1--1-1-1--1


G:-------------------------------

D:----7-------7-------7-------7--
  x2
A:--8---8---8---8---8---8---8---8

E:8-------8-------8-------8------


G:------------------------

D:------------------------
  x6
A:3-3-3-3-3-3-------------

E:-------------1-1-1-1-1-1



Track 14
-Breakfast at Timpani's-
No Bass


Track 15
-Rest up to you-

(Intro)
G:------------------

D:------------------

A:------------------

E:5~----7~----0~----


play fast-bass solo
G:------------------------------

D:----4-6-----4-----------------
  x6
A:7-7-----4-4---7--4-4-4-7------

E:-------------------------4-4-4


G:-----------------------------------

D:-----------------------------------

A:---7-7-7-7-7-7-7-7-----------------

E:8-------------------7-7-7-7-7-7-7-7


G:--------------

D:--------------

A:---4-6-7-----7

E:9---------4---


G:---------------------------------------------

D:--------------9-6-7--------------------------

A:7(16)-6-6-6-6-------5(16)-0-0-0-0-0--2-2--2-2

E:---------------------------------------------


G:---------------------

D:---------------------

A:7--6--5--0----5--2--2

E:---------------------


G:------------------------------

D:----4-6-----4-----------------
  x6
A:7-7-----4-4---7--4-4-4-7------

E:-------------------------4-4-4


G:-----------------------------------

D:-----------------------------------

A:---7-7-7-7-7-7-7-7-----------------

E:8-------------------7-7-7-7-7-7-7-7


G:--------------

D:--------------

A:---4-6-7-----7

E:9---------4---


G:---------------------------------------------

D:--------------9-6-7--------------------------

A:7(16)-6-6-6-6-------5(16)-0-0-0-0-0--2-2--2-2

E:---------------------------------------------


G:---------------------

D:---------------------

A:7--6--5--0----5--2--2

E:---------------------


G:----------------

D:------------0---

A:---4--0--------2

E:2--------0------


G:--------------------

D:----------------0---

A:----4-4-0-0--------2

E:2-2----------0------


G:-----------------------------------------------

D:-----------------------------------------------

A:7--x(12)--6--x(12)--5--x(12)--0-0-0-0--2-2--2-2

E:-----------------------------------------------


G:---------------------

D:---------------------

A:7--6--5--0----5--2--2

E:---------------------


G:---------------------------------------------

D:--------------9-6-7--------------------------

A:7(16)-6-6-6-6-------5(16)-0-0-0-0-0--2-2--2-2

E:---------------------------------------------


G:------------------------------4-4

D:-----4-4--6-6-------4-4----------
  x8
A:7-7------------4-4-------7-7-----

E:---------------------------------


G:----------

D:6-6----6-6

A:----------

E:----------


G:------------------------------4-4

D:-----4-4--6-6-------4-4----------
  x2
A:7-7------------4-4-------7-7-----

E:---------------------------------


G:-------------4

D:6-6-------4---
  x4
A:-----7-6------

E:--------------


(Outro)
G:--------------

D:--------------

A:7~------------

E:--------------


-Rest up to you solo-

Play Fast
G:------------------------------

D:----4-6-----4-----------------
  x6
A:7-7-----4-4---7--4-4-4-7------

E:-------------------------4-4-4


"I was just about to quote Mark Twain,
When I realized that it's all in vain.
A twist of fate a twisted look of pain,
To defeat the wheat go against the grain"


Track 16
-Failure to excommunicate-

(Intro)
G:----11-----11-----11-----11-----11-----11-----11-----11

D:9-9----9-9----9-9----9-9----0-0----0-0----0-0----0-0---
  x8
A:-------------------------------------------------------

E:-------------------------------------------------------


G:----------------------------------------

D:----------------------------------------

A:2-----5(8)--------2(8)--------5(8)------

E:---3--------5(8)--------3(8)--------5(8)


G:---------------------------------------------------------------------

D:---------------------------------------------------------------------

A:-----1--2-2-2--------------------5(8)-3-3-3-3------------------------

E:3--5----------5-5-3--3(8)--5(8)---------------5-5-5-5--3(8)--3(8)--5~


G:-------------------------------------

D:0-----2-2------------5-------2-2-----

A:---0-------5-3--5-5-----5-5-------5-3

E:-------------------------------------


G:----11-----11-----11-----11-----11-----11-----11-----11

D:9-9----9-9----9-9----9-9----0-0----0-0----0-0----0-0---
  x6
A:-------------------------------------------------------

E:-------------------------------------------------------


(Verse)
G:----------------------

D:----------------------
  x2
A:2(8)--------5(8)--0(8)

E:------3(8)------------


G:---------------------------------------------------------------------

D:---------------------------------------------------------------------

A:-----1--2-2-2--------------------5(8)-3-3-3-3------------------------

E:3--5----------5-5-3--3(8)--5(8)---------------5-5-5-5--3(8)--3(8)--5~




Track 17
-Less is More-

G:----------------------

D:----------------------
  x5
A:------1--1--3--3------

E:1--1--------------1--1


G:----------------------
      
----------

D:----------------------
  x2  
----------

A:------1--1--------3--3
      
----------

E:3--3--------1--1------
      
--3----3--


  Know what im trying to say. . . 
G:----------

D:----------

A:--1----1--

E:----------


G:----------------------

D:----------------------
  x4
A:------1--1--3--3------

E:1--1--------------1--1


G:----------------------
      
----------

D:----------------------
  x2  
----------

A:------1--1--------3--3
      
----------

E:3--3--------1--1------
      
--3----3--


(piano until the end of the song)

==========================================================================

Thats it, good luck. Please rate it after you learn it.

_TheBassist01_
 


/
How To Set Up Higher Praise As Your Home Page
Copyright 1999, Higher Praise HigherPraise,Inc. All rights reserved. Terms of Use

Enjoy A Life Changing Experience

 
 
 
HigherPraise, Higher Praise, HigherPraise, Higher Praise, HigherPraise

Members..Sign Up. LogIn

 
 

Higher Praise Other Sites
 
 

HigherPraise.org/
Praise And Worship
www.higherpraise.org

HigherPraise.net
Christian Resources
www.higherpraise.net

HigherPraiseTube.com
Videos And Audios
www.higherpraisetube.com.


ChristianLyrics.org

Lyrics And Chrords
www.christianlyrics.org

ChristianChordsLyrics

Lyrics And Chrords
www.christianchordslyrics.com

ChristianChordLyrics

Lyrics And Chrords
www.christianchordlyrics.com

WorshipLyrics.org
10.000 Illustrations
www.worshiplyrics.org

WorshipLyrics.net
10.000 Illustrations
www.worshiplyrics.net

PraiseLyrics.com
PowerPoint Lyrics

www.praiselyrics.com

PraiseLyrics.org
PowerPoint Lyrics

www.praiselyrics.org

1GodTube.com
Chistian Videos

www1godtube..com

OneGodTube.com
Chistian Videos

www.onegodtube..com

 

/
Copyright 1999 - 2019, Higher Praise™ HigherPraise™,Inc. All rights reserved. Terms of Use