Higher Praise - Guitar Chords, Lyrics  GuitarTabs -  Praise nad Worship Music And Christian Songs

Higher Praise - Guitar Tabs, Guitar Chords, Lyrics
   Lyrics, Chords And Tabs
   Popular Lyrics Chords Tab
   Power Point Lyrics
   Praise & Worship Music
   Christian Music Videos
   15900 Videos & Audios
   Midi Files
   Worship Questions
   Christmas Chords, Lyrics
   Lyrics, Chords Tabs Rated

Sermon Outlines And Audio Sermons
   9344 Sermon Outlines
   N.T. Sermon Outlines
   O.T. Sermon Outlines
   Special Guest Outlines
   10.000 Illustrations
   Sunday School Studies
   Bible College Studies
   Greatest Preachers
   Bible Research Tools
Audio Sermons
   2895 Audio Sermons
   85 Sermon Videos
   291 Special Guests Serm

   Complete Audio Bible
Higher Praise Sunday School Teaching
   Children's NT Studies
   Children's OT Studies

   98 Children's Midis
   Gospel For Kids Movie
   Children's JESUS Film
Higher Praise Christian Video Library ,Videos
   Christian Television
   TBN TV Live
   15,000 Videos - HP Tube
   712 Youth Music Vids
  Christian Video Library
   Praise Videos #1 & #2
   85 Sermon Videos
   Prophecy Film -Videos
   JESUS Film -Video
   Childrens JESUS Film
   Gospel For Kids Movie
   Passion Of The Christ
   Noah, Sodom, Sinai, Ark
   Tsunami Videos Photos
News And Information
   Testimonies
   Submit Lyrics, Tabs, Serm
   10.000 Illustrations
   Bible College Course
   Clipart & Web Graphics
   Greatest Preachers
   Complete Talking Bible
   Christian Chat Rooms
   Links Church Resource
   HP Statement Of Faith
Download Clipart
   Audio Sermons
   Clipart & Web Graphics
   Church Administration
   Bible Study Software
   Screen Savers Software
   Verse A Day Software
   Educational Games
   Trade Center Photos

   Soft. Search Engine
Higher Praise News
   Current News
    Archived News
   Submit News
   Newsletter   Higher Praise Interact Prayer
   Prayer For All Needs
   
Submit Lyrics, Sermons
   
Contact Higher Praise
   
Advertising 
   Privacy Policy
//
He Died For You,  Click For Answer! This Is Who Jesus Is Video

'
 
0-9 A B C D E F G H I J K L M N O P Q R S T U V W X Y Z
.

//
Click For Printable...Version Of This File
 

Weathered Album Bass Tab


by Creed




Band- Creed
Album- Weathered

Track Listings:
1.Bullets
2.Freedom Fighter
3.Who's Got Your Back?
4.Signs
5.One Last Breath
6.My Sacrifice
7.Stand Here With Me
8.Weathered
9.Hide
10.Don't Stop Dancing
11.Lullaby

-----------------------------------------------------

1.BULLETS

Verse (0:47)
G-------------------------------------

D-------------------------------------
	X2
A-------------------------------------

D-120-00-00--1-0-00-00-120-00-00-1b---


Verse 2 (0:59, 1:34)
G-------------------------------------

D-------------------------------------
	X2
A-------------------------------------

D-120-00-00--1-0-00-00-120-00-00-1b---


1st Chorus (1:23, 1:58)
G---------------------------------------------------------------

D----------------------------------------------------------1----
	X1
A------------------------------------------------------------3--

D-0h1-0h1-0h1-0-0h1-0h1-0h1-000-0h1-0h1-0h1-0-0h1-0h1-0h1-0-----


2nd Chorus
G--------------------------------------------------------------

D--------------------------------------------------------------
	  X1
A--------------------------------------------------------------

D-0h1-0h1-0h1-0-0h1-0h1-0h1-000-0h1-0h1-0h1-0-0h1-0h1-0h1-000--


Bridge  (2:10)
G-------------------------------------

D-------------------------------------
    X1
A-------------------------------------

D-12----000----0----000----000--------


Intelude  (2:22)
G-----------------------------------------------------

D-----------------------------------------------------
	 X7
A-----------------------------------------------------

D-00-0-000000-0-00000-0000-0-00-00-00-0-000000000000--


3rd Chorus (3:09)
G----------------------------------------------------------------

D-----------------------------------------------------------1----
	X3
A-------------------------------------------------------------3--

D-0h1-0h1-0h1-0-0h1-0h1-0h1-000-0h1-0h1-0h1-0-0h1-0h1-0h1-0------


G--------------------------------------------------------------

D--------------------------------------------------------------
	  X1
A--------------------------------------------------------------

D-0h1-0h1-0h1-0-0h1-0h1-0h1-000-0h1-0h1-0h1-0-0h1-0h1-0h1-000--


Outro (3:32)
G--------------------------------------------------------------------------------

D--------------------------------------------------------------------------------
 X1
A--------------------------------------------------------------------------------

D-0----000----0----000-13-12-0-10-12-0-13-12-0-10-12-0-13-12-0-10-12-10-0-0-0-0--


2.FREEDOM FIGHTER

Intro  (0:01)
G----------------------

D----------------------
	X3
A-------0-----0-3-5----

D-0-3-5---0--0------0--


4th time
G------------------------

D---------5h6h5-3-5-3----
  X1
A-------0-------------5--

D-0-3-5------------------


G----------------------

D----------------------
	X3
A-------0-----0-3-5----

D-0-3-5---0--0------0--


G-------------------

D-5~-553-----3------
  X1
A--------5-5---5-3--

D-------------------


Play Intro again (0:20)

Chorus  (0:38)
G----------------------------------------------------

D----------------------------------------------------
  X1
A------3-33-2-22-------------------------------------

D-0-00-----------5-5543-33-/-777-\-2-22-0-6-5-3-5-3--


Play Intro again  (0:47)
Then Play the chorus again (1:05) X1

Interlude  (1:14)
G---------------------------

D---------------------------
  X3
A---------------------------

D-0-00-0-00-0-00-6-5-3-5-3--


(1:28)
G-------------------------------

D-------------------------------
 X6
A-------------------------------

D-0-000-0-000-0-00-6-5-3-5-3-0--


(1:55)
G---------------------------------------------

D---------------------------------------------
  X3
A---5h6h5-3-5---5h6h5-3-5---5h6h5-3-5---------

D-0-----------0-----------0-----------00-3-5--


Outro  (2:13)
G----------------------------------------------------

D----------------------------------------------------
 X2
A------3-33-2-22-------------------------------------

D-0-00-----------5-5543-33-/-777-\-2-22-0-6-5-3-5-3--


(2:31)
G----------------------------------------

D----------------------------------------
 X1
A----------------------------------------

D-6-5-3-5-3-0--6-5-3-5-3-0--6-5-3-5-3-0--


3.WHO'S GOT YOUR BACK?

Intro (0:06)
g------(9)-------------

d-(5)-------(5)---(7)--

a----------------------

d----------------------
 x6

Riff #1 (0:34)		    Fill #1
g------------------------------------------
-------

d------------------------------------------
-------

a----------3--------3~~-------3~~-------
3~~-------

d-2-4345~-----2-4345~----2-4345~----2-4345~
-------


Riff #1	(0:43)		    Fill #2
g------------------------------------------
-------

d------------------------------------------
-------

a----------3--------3~~-------3~~-------
33--------

d-2-4345~-----2-4345~----2-4345~----2-4345~
-------


Riff #1 (0:51)		    Fill #3
g------------------------------------------
-------

d------------------------------------------
-------

a----------3--------3~~-------3~~-------
----------

d-2-4345~-----2-4345~----2-4345~----2-4345~
\~~----


Riff #1 (1:01)		    Fill #4
g------------------------------------------
-------

d------------------------------------------
-------

a----------3--------3~~-------3~~-------
----------

d-2-4345~-----2-4345~----2-4345~----2-4345~
~~~~---


Riff #2 (1:10)
g--------------------------------------------------

d--------------------------------------------------

a--------------------------------------------------

d-8~8~10~~~----8~8~10~~~----8~8~10~~~----8~8~10~~~-


Riff #3 (1:19)
g---------------------------------------------------------------

d-----10~~---------9~~9-7h97--------10~~---------10~~-----------

a-3~\-----333-3~\---7-----99\3~\-----333-3~\-----333-3~~--------

d---------------------------------------------------------------


Riff #1 (1:38)		    Fill #3
g------------------------------------------
-------

d------------------------------------------
-------

a----------3--------3~~-------3~~-------
----------

d-2-4345~-----2-4345~----2-4345~----2-4345~
\------


Riff #1	(1:46)		    Fill #4
g------------------------------------------
-------

d------------------------------------------
-------

a----------3--------3~~-------3~~-------
----------

d-2-4345~-----2-4345~----2-4345~----2-4345~
~~~~---


Riff #2 (1:55)
g--------------------------------------------------

d--------------------------------------------------

a--------------------------------------------------

d-8~8~10~~~----8~8~10~~~----8~8~10~~~----8~8~10~~~-


Riff #4 (2:04)
g----------------------------------

d-----10~~---------9~~9-7h97-------

a-3~\-----333-3~\---7-----99-------

d----------------------------------
 x3

Riff #5 (2:30)
g----------------------------------------------------

d-----10~~-------------------------------------------

a-3~\-----333-3~\------------------------------------

d------------------2~~~---222~~~---222~~~---222~~~---


Interlude (2:43)
g-(7)\--------------

d-------(7)\--------

a-------------------

d-------------------
 x4

Interlude 2 (3:03)
g-(7)---(7)----

d----(7)-------

a--------------

d--------------
 x4

Riff #6 (3:48)		    Fill #5
g------------------------------------------
-----

d------------------------------------------
-----

a------------------------------------------
3b---

d-2-4345~-----2-4345~----2-4345~----2-4345~
-----


Riff #6	(3:57)		    Fill #25
g------------------------------------------
-----

d------------------------------------------
-----

a------------------------------------------
3b---

d-2-4345~-----2-4345~----2-4345~----2-4345~
-----


Riff #7 (4:04)
g----------------------------------------

d----------------------------------------

a----------------------------------------

d-8~8~10~~~-10101010-8~8~10~~~-10101010--
 x2

Riff #8 (4:13 to 4:53) Ending
g---------------------

d-----10~~-/7/54------

a-3~\-----------------

d---------------------
 repeat a lot of time.

4.SIGNS

Intro	(0:13)
G-------------------------------------------------------------------------------

D-------------------------------------------------------------------------------
  X1
A-------------------------------------------------------------------------------

D-0-0-2-2fb-0-2fb-0-2h3p2p0-2fb-0-2fb-0-2b--2fb-0-2fb-0-2h3p2p0-2fb-0-2fb-0-2b--


Verse	(0:24,1:31-2nd time X5)
G---------------------------------------------------------------

D---------------------------------------------------------------
  X4
A---------------------------------------------------------------

D-2fb-0-2fb-0-2fb-0-2fb-0--2fb-0-2fb-0-2--22-33-20-2fb-0-2fb-0--


Chorus	(1:09,2:29)
G----------------------------------------------------

D----------------------------------------------------
	X2
A----------------------------------------------------

D-888888888888888-7777777777777777-3333333333333333--


Part A  (1:18,2:37,3:48)
G--------------------------------------------

D--------------------------------------------
	 X1
A--------------------------------------------

D-10-10-10-10/12-12\10-10-9-9-9-9/10-10\9-9--


Part B  (1:29)
G-----
D-----  X1
A--2--
D--2--

2nd Chorus  (2:40,3:40)
G----------------------------

D----------------------------
  X1
A----------------------------

D-8-88888-7-77777-3-33333-2--


Interlude  (2:50,4:02- 2nd time X8)
G--------------

D--------------
  X18
A---1---0------

D-3---3---3-0--


5.ONE LAST BREATH

G
---------------------------------------------------------------------------------------------------------------------

D
----------------------------------------------------------------------------1~---------------------------------------

A
--0--5-5----5----0--0----2--2----2----10--0----5-5----5----5h7-----------2--4----5----5----0----2--------------------

E
------------------------------------------------------------------------------------------------------------------5--


G
-------------------------------------------------------------------------------------------------------

D
-----------------------1~-------------------------------------------------1~--------5----5--7--7h9--7--

A
--5-5----5----5h7--------2--------------2--4----5-5----5----5h7-------2--------------------------------

E
-----------------------------------5--5----------------------------------------------------------------


G
----------------------------------4----------------------------------

D
-----------------------1~----4--------5-5-5-5------------------------

A
--5-5----5----5h7------------------------------5-5-5-5---------------

E
---------------------------------------------------------------------


Chorus
G
---------------------------------------------------------------------------------------------------------------------------

D
---------------------------------------------------------------------------------------------------------------------------

A
--5--5------------------------2--2------------------------5---5---5----5-------------------------2---2---------------------

E
---------4--4--2--4--2--4---------5--5--5--5----5-----------------------4--4--2--4--2--4-----------5----5----5--5--5--5-5--


G
-----------------------------------------------------------------------------------------------------------------------------------------

D
-----------------------------------------------------------------------------------------------------------------------------------------

A
--5----5------------------------2----2---------------------------5---5---5----5--------------------------2----2--------------------------

E
-----------4--4--2--4--2--4---------------5--5--5--5----5-------------------------4--4--2--4--2--4--------------5-----5----5--5--5--5-5--


G
-------------------------------------------------------------------------------------

D
-------------------------------------------------------------------------------------

A
--2---2----------------------------------2---2---------------------------------------

E
-----------5----5----5--5--5--5-5--------------5----5----5--5--5--5-5----------------


G
---------------------------------------------------------------------------------------------------------------

D
---------------------------------------------------------------------------------------------------------------

A
--------------------------------5----5--7--9--5--5----5----5--5--5--4--0---------------------2------2----------

E
--2---2---5-----5--5--5---------------------------------------------------------4----4--2--2------4------4--5--


G
------------------------------------------------------------------

D
------------------------------------------------------------------

A
------------------------------------------------------------------

E
--5--5----5--5--5--5--5----5--5--5--5--5--5--5--------------------


G
---------------------------------------------------------------------------------------------------------------

D
---------------------------------------------------------------------------------------------------------------

A
--------------------------------5----5--7--9--5--5----5----5--5--5--4--0---------------------2------2----------

E
--2---2---5-----5--5--5---------------------------------------------------------4----4--2--2------4------4--5--


G
------------------------------------------------------------------

D
------------------------------------------------------------------

A
-------------------------------------------------------------5----

E
--5--5----5--5--5--5--5----5--5--5--5--5--5--5--------------------


Chorus
G
----------------------------------------------------------------------------------------------------------------------------

D
----------------------------------------------------------------------------------------------------------------------------

A
--5--5------------------------2--2------------------------5---5---5----5-------------------------2---2----------------------

E
---------4--4--2--4--2--4----------5--5--5--5----5-----------------------4--4--2--4--2--4-----------5----5----5--5--5--5-5--


G
------------------------------------------------------------------------------------------------------------

D
------------------------------------------------------------------------------------------------------------

A
--5----5------------------------2----2-----------------------5---5---5----5--------------------------2---2--

E
-----------4--4--2--4--2--4-------------5--5--5--5----5----------------------4--4--2--4--2--4---------------


6.MY SACRIFICE

Intro/Verse

G--------------------------------------------------------------------

D--------------------------------------------------------------------

A---54455--5-447-45754455--5-447-4572-222-2--2--2245---------------0-
  x 3 then
D------------------------------------------4---------5-555-554555----


G---------------------------------------------------------------------

D---------------------------------------------------------------------

A---54455--5-447-45754455--5-447-4572-222-2--2--2245------------------
  4th time
D------------------------------------------2---------5-555-5545577542-


Chorus

G--------------------------------------------------------------------

D--------------------------------------------------------------------

A-----------555----4-444-44456-7---2-222-222345----------------  x 2-

D---0-000-00------------------------------------5-55-555303-053------


Verse x 2 + modified x 1

Chorus

Bridge
G-----------------------------------------

D-----------------------------------------

A-----------------------------------------
 x 4 then
D---0-0--00--0-00--0-00--0-00--0-00-00000-


G-------------------                        ------

D-------------------                        ------

A---3/5-55--3/5-55-- repeat, then end with  ------

D--0-------0--------                        ---0--


Chorus (guitar only)

Chorus x 1 then

Modified Chorus

G------------------------------------------------------------------------

D------------------------------------------------------------------------

A-----------5-5-5/7-4--44000---------------------------------------------

D---0-000-00----------------3/555h75h777/9-999-999-11-12-5-55-555303-053-


Bridge x 3 + end x 1

End

G-----------

D-----------

A-----------

D---0-0-0---


7.STAND HERE WITH ME

Verse:
G------------------------------------------------------------------------

D------------------------------------------------------------------------

A-0-00-0-0-5--4---------------2--0---------------------------------------

D---------------------5-55-5-5--------0-00-0-0h5--4---0-00-0-0h5--4------


Chorus:
G-----------------------------------------------------------------------------------

D-----------------------------------------------------------------------------------

A-----------------------------------------------------------------------------------

D-0`--------------------------------------------------------------------------------


G---------------------------------------------------------------------------

D---------------------------------------------------------------------------

A--3333333333333------1111--------------------------------------------------

D---------------0---------0--------3-3-0-3/5-55-0-00-555-0-00-3/5-(55)------


Ending:
G------------------------------------------------------------------------------

D------------------------------------------------------------------------------

A-0-00-0-0-5--4---------------2--0---------------------------------------------

D---------------------5-55-5-5--------0-00-0-0h5--4----------------------------


Order:
Verse: 5
Chorus: 2
Verse: 5
Chorus: 2 (then 2 more times behind solo)
Ending: 6 (first 2 times behind solo)

8.WEATHERED

Verse
G:--------------------------------------------------------------

D:--------------------------------------------0-5p3-0~----------

A:-3------------3-2---2~----------------------------------------

D:-----------------------------------3/5--5---------------------


Play this at 0:54 \"Maybe I can\'t accept the life that\'s mine . . .\"
G:----------------------------------------------------------------

D:---------------------------------------------5p3p0~-----5^--5^--

A:-3------------3-2---2~------------------------------------------

D:-----------------------------------3/5--5-----------------------


Going into first chorus -
G:---------

D:-3h5-----

A:------5--

D:---------


Chorus - "Me . . .I rusted and weathered . . ."
G:----------------------------------------

D:----------------------------------------

A:------------------1-1-------------------

D:-0--0-0-0-0-0--0-------0--3-3-3-3-3--0--


"Barely holding together . . ."
G:-------------------------------

D:-------------------------------

A:---3/5--3----------------------

D:0----------0--5-5-5-5-5-5-5-5--


"I'm covered with skin . . . . . . . .�
G:---------------------------------------

D:---------------------------------------

A:-8--------8--------8--------8----------

D:---8-8-8----8-8-8----8-8-8----8-8--0~--


�That peals and it just . . . . won�t heal"
G:------------------------------------------------------

D:------------------------------------------------------

A:------5--------5--------5-----------------------------

D:--5-5---5--5-5---5--5-5---5�-5--0--5p3-0-3b----


Going into verse 2
G:-----------------

D:-3h5--3h5--3-----

A:--------------5--

D:-----------------


Going into 2nd chorus -
G:--------------
------------------------------

D:-3--3h5p3-----
------------------------------

A:-----------5--
------------------------------

D:--------------
--0-0--2-2-2-2--0-0--2-2-2-2--


Then it goes into chorus

Bridge -
G:----------------------------------------------------------------

D:----------------------------------------------------------------

A:-------------------------------------------------------------5--

D:-0---0---0---0-----0-0-0-0---------0---0---0---0---0---0-0------


G:--------------------------------------------------------------------

D:--------------------------------------------------------------------

A:--------------------------------------------------------------------

D:-0---0---0---0-----0-0-0-0---------0---0---0---0---0---0-0---0---0--


Then a little later play these notes -
G:-------------------------------------------------------------

D:-------------------------------------------------------------

A:-------------------------------------------------------------

D:-0---0---0---0-----0-0-0-0-----0---0---0---0---0-0-0-0---0---


Then at - \". . . fight . . . . to fight . . .\"
G:------------------------------------------------------

D:------------------------------------------------------

A:-1-1-1-1-1-1-1-1-1-1-1--------------------------------

D:------------------------0--5-5-5-5-5--0---5p3--0--3b--


Then it finishes on the chorus

Ends on this -
G:---------

D:---------

A:---------

D:---0~~---


9.HIDE

Intro
G------------------------------------------------------------------------

D----------8----------8----------8----------8----------------------------

A------------------------------------------------------------------------

E--6-6-6-6----6-6-6-6----6-6-6-6----6-6-6-6------------------------------

B------------------------------------------------------------------------


Verse
G---------------------------------------------------------------

D---------------------------------------------------------------

A---------------------------------------------------------------

E--3-33-1-11-111/6-6-66-66--------3-33-1-11-111/6-6-66-66-------

B---------------------------------------------------------------
pause

G---------------------------------------------------------------

D---------------------------------------------------------------

A-----------------------------------------------1//6------------

E--3-33-1-11-111/6-6-66-66--------3-33-1-11-111-----------------

B---------------------------------------------------------------


G------------------------------

D------------------------------

A--6-66-666686-----------------

E-------------806--------------

B------------------------------


Chorus
G---------------------------------------------------------------

D---------------------------------------------------------------

A------------------------------------------6-66-666686----------

E---6-6666-6h8-6-5-5-55-555-3-33-11-11----------------806-------

B---------------------------------------------------------------
x3

Bridge
G---------------------------------------------

D---------------------------------------------

A-------------1---------1---------1---------1-

E----6\---------------------------------------

B---------------------------------------------


10.DON'T STOP DANCING

Intro/FIRST VERSE
G
-----------------

D
-----------------

A
-----------------

E
-----------------


i think there is no bass in first verse

Pre Chorus:``Because inside I know``
G
-----------------------------------

D
-----------------------------------

A
-----------------------------------

E
-12/-1--1--------------------------


``That many feels this way``
G
------------------------------

D
------------------------------

A
-3-3-3-3-3-3-3----------------

E
------------------------------


Chorus:
``Children don't stop dancing``
G
---------------------------------------------------------

D
---------------------------------------------------------

A
--------------------5-5-5-5-5----------------------------

E
-3-3-3-3-3-3------------------------5-5-5-5-5-5-5--------


``Believe you can fly``
G
-----------------------------------------------

D
-----------------------------------------------

A
-3-3-3-3-3-3--------------------------5-5-5-5--

E
----------------3-3-3-3----5--5--5-------------


``Away,Away``
G
-------------------------------

D
-------------------------------

A
--------3-3-3-3-3-3-3----------

E
0h4----------------------------


Verse2nd
G
---------------------------------------------------------------------------------

D
---------------------------------------------------------------------------------

A
---------------------3---2---2h320------------------------3---2---2h325----------

E
-3---2---2h320------------------------3---2---2h320------------------------------

(Repeat Until it comes to)

``But i know i must go on``
G
-------------------------

D
-------------------------

A
-------------3-3-3-3-----

E
3-3-3-3------------------


Pre Chorus:``Beacause inside I know``
G
---------------------------------------

D
---------------------------------------

A
---------------------------------------

E
-12/-1--1------------------------------


``That many feel this way``
G
------------------------------

D
------------------------------

A
-3-3-3-3-3-3-3----------------

E
------------------------------


Chorus:
``Children don't stop dancing``
G
---------------------------------------------------------

D
---------------------------------------------------------

A
--------------------5-5-5-5-5----------------------------

E
-3-3-3-3-3-3------------------------5-5-5-5-5-5-5--------


``Believe you can fly``
G
--------------------------------------------------------

D
--------------------------------------------------------

A
-3-3-3-3-3-3--------------------------5-5-5-5-----------

E
----------------3-3-3-3----5--5--5----------------------



``Away,Away``
G
-------------------------------

D
-------------------------------

A
--------3-3-3-3-3-3-3----------

E
0h4----------------------------


Solo
G
--------------------------------------------------------------------------------------------

D
--------------------------------------------------------------------------------------------

A
-------------------------3------2----2h320-------------------------------3------2----2h320--

E
-3-----2---2h320----------------------------------3-----2---2h320---------------------------



``Am i Hiding``                 ``In the shadows``
G
----------------------------
-----------------------------------------

D
----------------------------
-----------------------------------------

A
-5555--------------------
--3333--------------------------------------

E
---------55555555-----
----------33333333-----------------------------


Bridge(CLEAN GUITAR NO BASS)

``Away,Away``
G
----------------------------

D
----------------------------

A
-33333333333----------------

E
----------------------------


then repeat chorus and finish with verse

11.LULLABY

Don't Know
 


/
How To Set Up Higher Praise As Your Home Page
Copyright 1999, Higher Praise HigherPraise,Inc. All rights reserved. Terms of Use

Enjoy A Life Changing Experience

 
 
 
HigherPraise, Higher Praise, HigherPraise, Higher Praise, HigherPraise

Members..Sign Up. LogIn

 
 

Higher Praise Other Sites
 
 

HigherPraise.org/
Praise And Worship
www.higherpraise.org

HigherPraise.net
Christian Resources
www.higherpraise.net

HigherPraiseTube.com
Videos And Audios
www.higherpraisetube.com.


ChristianLyrics.org

Lyrics And Chrords
www.christianlyrics.org

ChristianChordsLyrics

Lyrics And Chrords
www.christianchordslyrics.com

ChristianChordLyrics

Lyrics And Chrords
www.christianchordlyrics.com

WorshipLyrics.org
10.000 Illustrations
www.worshiplyrics.org

WorshipLyrics.net
10.000 Illustrations
www.worshiplyrics.net

PraiseLyrics.com
PowerPoint Lyrics

www.praiselyrics.com

PraiseLyrics.org
PowerPoint Lyrics

www.praiselyrics.org

1GodTube.com
Chistian Videos

www1godtube..com

OneGodTube.com
Chistian Videos

www.onegodtube..com

 

/
Copyright 1999 - 2019, Higher Praise™ HigherPraise™,Inc. All rights reserved. Terms of Use