Higher Praise - Guitar Chords, Lyrics  GuitarTabs -  Praise nad Worship Music And Christian Songs

Higher Praise - Guitar Tabs, Guitar Chords, Lyrics
   Lyrics, Chords And Tabs
   Popular Lyrics Chords Tab
   Power Point Lyrics
   Praise & Worship Music
   Christian Music Videos
   15900 Videos & Audios
   Midi Files
   Worship Questions
   Christmas Chords, Lyrics
   Lyrics, Chords Tabs Rated

Sermon Outlines And Audio Sermons
   9344 Sermon Outlines
   N.T. Sermon Outlines
   O.T. Sermon Outlines
   Special Guest Outlines
   10.000 Illustrations
   Sunday School Studies
   Bible College Studies
   Greatest Preachers
   Bible Research Tools
Audio Sermons
   2895 Audio Sermons
   85 Sermon Videos
   291 Special Guests Serm

   Complete Audio Bible
Higher Praise Sunday School Teaching
   Children's NT Studies
   Children's OT Studies

   98 Children's Midis
   Gospel For Kids Movie
   Children's JESUS Film
Higher Praise Christian Video Library ,Videos
   Christian Television
   TBN TV Live
   15,000 Videos - HP Tube
   712 Youth Music Vids
  Christian Video Library
   Praise Videos #1 & #2
   85 Sermon Videos
   Prophecy Film -Videos
   JESUS Film -Video
   Childrens JESUS Film
   Gospel For Kids Movie
   Passion Of The Christ
   Noah, Sodom, Sinai, Ark
   Tsunami Videos Photos
News And Information
   Testimonies
   Submit Lyrics, Tabs, Serm
   10.000 Illustrations
   Bible College Course
   Clipart & Web Graphics
   Greatest Preachers
   Complete Talking Bible
   Christian Chat Rooms
   Links Church Resource
   HP Statement Of Faith
Download Clipart
   Audio Sermons
   Clipart & Web Graphics
   Church Administration
   Bible Study Software
   Screen Savers Software
   Verse A Day Software
   Educational Games
   Trade Center Photos

   Soft. Search Engine
Higher Praise News
   Current News
    Archived News
   Submit News
   Newsletter   Higher Praise Interact Prayer
   Prayer For All Needs
   
Submit Lyrics, Sermons
   
Contact Higher Praise
   
Advertising 
   Privacy Policy
//
He Died For You,  Click For Answer! This Is Who Jesus Is Video

'
 
0-9 A B C D E F G H I J K L M N O P Q R S T U V W X Y Z
.

//
Click For Printable...Version Of This File
 

Everlasting God Bass Tab


by Chris Tomlin




-----------------------------------------------------------------------
Song: Everlasting God
Artist: Chris Tomlin
Album: See the Morning
-----------------------------------------------------------------------


Notes: If performed in Chris Tomlin's key, it'll be in Db. In case you need to 
I used note names and fret numbers.
Tuning: Standard (5-String Bass)

INTRO: Pedal tone Db with short 8th notes (maybe palm-muted)
*You probably shouldn't be playing the low Db on the B-string (2nd fret)in the intro,
you're REALLY rocking this one out...save it for the chorus, if anything.

    Db
G
------------------------------------------------------------------------

D
------------------------------------------------------------------------

A
--4-4-4-----------------------------------------------------------------

E
-----------------------------------
 a 4-measure phrase consists of 32--

B
------------------------------------------------------------------------
 8th notes. ..etc.
(8th notes, 4 measures) If you're really into counting,

VERSE: Same as intro: short, possibly palm-muted 8th notes on Db.
    Db
G
-------------------------------------

D
-------------------------------------

A
--4-4-4------------------------------
..etc.(8th notes, 4 measures)
E
-------------------------------------

B
-------------------------------------

       “Strength will rise...”

Then repeat the verse...same as before. 8th notes on Db...but then:
*Watch for the pushes at the end of the verse and in the PreChorus. The timing on the
is the most difficult part in the song. Listen to the recording for help.

END VERSE/PRECHORUS:
    Db                          F    Gb       F   Gb      Ab Bb   Ab
    +  4    + 1  + 2  +   3     +  4 +  1+2+3 + 4 +  1  + 2 +3+4+ 1+2+
G
--------------------------------------------------------------------

D
--------------------------------------------------------------------

A
--4--4----4-4--4-4--4---4----------------------------------1--------

E
------------------------------1----2~-------1---2-------4~------4~--

B
--------------------------------------------------------------------

   “We will wait upon the Lord  Our  God      You reign for-e –   ver”


*Watch for the bar of 2/4 here.
      F   Gb      F    Gb     Ab    Bb        Ab
    3 + 4 + 1+2+3 +  4 +  1   + 2 + 1 +2+3+4+ 1+2+3+4+
G
-----------------------------------------------------

D
-----------------------------------------------------

A
----------------------------------1~---------(Build)-

E
----1---2~------1----2------4---------------4-4-4-4--

B
-----------------------------------------------------

     “Our hope,   our  strong de- liv   -   'rer”

CHORUS: Whew...the easy part. Just drive it with fat, open 8th notes and/or whatever
your dynamic level at the time. I'll just write the single notes used.
NOTE: The guitars use “disposable” changes before the Gb and Bb, so in my opinion, these
necessary for the bass to do. Keep it Simple!

    Db                Gb         Bb         Gb
G
-----------------------------------------------------------

D
-----------------------------------------------------------

A
--4----------------------------1---------------------------

E
--------------------2---------------------2----------------

B
-(2)-------------------------------------------------------

     “You are the...God, the...God......you won't grow weary.”

*This chorus progression is repeated for second half of chorus later, from “You're the
of the weak...” to “on wings like eagles.”

Those are the sections you'll need, order them how you wish. End on a long Db for the
to play the final riff over. Have fun, God bless.

=======================================================================
 


/
How To Set Up Higher Praise As Your Home Page
Copyright 1999, Higher Praise HigherPraise,Inc. All rights reserved. Terms of Use

Enjoy A Life Changing Experience

 
 
 
HigherPraise, Higher Praise, HigherPraise, Higher Praise, HigherPraise

Members..Sign Up. LogIn

 
 

Higher Praise Other Sites
 
 

HigherPraise.org/
Praise And Worship
www.higherpraise.org

HigherPraise.net
Christian Resources
www.higherpraise.net

HigherPraiseTube.com
Videos And Audios
www.higherpraisetube.com.


ChristianLyrics.org

Lyrics And Chrords
www.christianlyrics.org

ChristianChordsLyrics

Lyrics And Chrords
www.christianchordslyrics.com

ChristianChordLyrics

Lyrics And Chrords
www.christianchordlyrics.com

WorshipLyrics.org
10.000 Illustrations
www.worshiplyrics.org

WorshipLyrics.net
10.000 Illustrations
www.worshiplyrics.net

PraiseLyrics.com
PowerPoint Lyrics

www.praiselyrics.com

PraiseLyrics.org
PowerPoint Lyrics

www.praiselyrics.org

1GodTube.com
Chistian Videos

www1godtube..com

OneGodTube.com
Chistian Videos

www.onegodtube..com

 

/
© Copyright 1999 - 2019, Higher Praise™ HigherPraise™,Inc. All rights reserved. Terms of Use