Higher Praise - Guitar Chords, Lyrics  GuitarTabs -  Praise nad Worship Music And Christian Songs

Higher Praise - Guitar Tabs, Guitar Chords, Lyrics
   Lyrics, Chords And Tabs
   Popular Lyrics Chords Tab
   Power Point Lyrics
   Praise & Worship Music
   Christian Music Videos
   15900 Videos & Audios
   Midi Files
   Worship Questions
   Christmas Chords, Lyrics
   Lyrics, Chords Tabs Rated

Sermon Outlines And Audio Sermons
   9344 Sermon Outlines
   N.T. Sermon Outlines
   O.T. Sermon Outlines
   Special Guest Outlines
   10.000 Illustrations
   Sunday School Studies
   Bible College Studies
   Greatest Preachers
   Bible Research Tools
Audio Sermons
   2895 Audio Sermons
   85 Sermon Videos
   291 Special Guests Serm

   Complete Audio Bible
Higher Praise Sunday School Teaching
   Children's NT Studies
   Children's OT Studies

   98 Children's Midis
   Gospel For Kids Movie
   Children's JESUS Film
Higher Praise Christian Video Library ,Videos
   Christian Television
   TBN TV Live
   15,000 Videos - HP Tube
   712 Youth Music Vids
  Christian Video Library
   Praise Videos #1 & #2
   85 Sermon Videos
   Prophecy Film -Videos
   JESUS Film -Video
   Childrens JESUS Film
   Gospel For Kids Movie
   Passion Of The Christ
   Noah, Sodom, Sinai, Ark
   Tsunami Videos Photos
News And Information
   Testimonies
   Submit Lyrics, Tabs, Serm
   10.000 Illustrations
   Bible College Course
   Clipart & Web Graphics
   Greatest Preachers
   Complete Talking Bible
   Christian Chat Rooms
   Links Church Resource
   HP Statement Of Faith
Download Clipart
   Audio Sermons
   Clipart & Web Graphics
   Church Administration
   Bible Study Software
   Screen Savers Software
   Verse A Day Software
   Educational Games
   Trade Center Photos

   Soft. Search Engine
Higher Praise News
   Current News
    Archived News
   Submit News
   Newsletter   Higher Praise Interact Prayer
   Prayer For All Needs
   
Submit Lyrics, Sermons
   
Contact Higher Praise
   
Advertising 
   Privacy Policy
//
He Died For You,  Click For Answer! This Is Who Jesus Is Video

'
 
0-9 A B C D E F G H I J K L M N O P Q R S T U V W X Y Z
.

//
Click For Printable...Version Of This File
 

ITS KILLING ME


by DC TALK




Copyright: 1998 ACHTOBER SONGS
CDTitle: SUPERNATURAL
Year: 1998
                                   
Capo I

VERSE 1
C#m7 CMaj7
Hello, good-bye
C#m7 CMaj7
I wanted to say, but I guess
C#m7 CMaj7 E5
I Don't have the strength to speak tonight
C#m7 CMaj7 C#m7
It's tricky sometimes (it's no suprise)
CMaj7
When you wanted to run, you'd always hide
C#m7 CMaj7 E5
You can't find the truth behind the lies

VERSE 2
E5 D5
Another day and I'm on my feet
E5 D5
But the street feels like it's sleepin'
E5 D5
I'm on a mission and it ain't too sweet

VERSE 2A
G5 A5
You're the reason I'm afraid
G5 A5
Said, you're the reason I'm afraid

CHORUS
E5 D5 G5
But I want you to know
A5
It's killing me
E5 D5 G5
I think I gotta let go
A5
'Cause it's killing me

CHORUS TAG
C5
You're gonna do what you want
A5
But you better believe
C#m7 CMaj7
It's killing me

VERSE 1

Love never dies
It's the reason that I won't compromise
But sometime you fall before you fly

VERSE 2

I've seen it comin' for quite some time, man
I don't know what you're thinkin'
How can the two of us walk in stride

VERSE 2A
G5 A5
If we don't see eye to eye
Em/B C#m7 (different voicing)
You got me all messed up inside

CHORUS (play 2x)

BRIDGE
E5 C5
Is it too late in the game
E5 C5 C#m7
There is no one left to blame
E5 C5
I will always mention you
E5 C5`
To the one that I pray to

CHORUS (play 2x)

OUTRO
E5 D5 C#5 C5
Why can't you see, it's killing me? sing 4x, play 8x)


(I Don't have the guitar solo at end yet, but if you figure
it out let me know.)


******************************************************************************

VERSE 1
C#m7 CMaj7 E5
-|-x-x-x-x--x-x-x-x-x-x-x--||---x--x--x--x------------------------------------
-|-5-5-5-5--5-5-5-5-5-5-5--||---5--5--5--5------------------------------------
-|-4-4-4-4--4-4-4-4-4-4-4-*||---4--4--4--4------------------------------------
-|-2-2-2-2--2-2-2-2-2-2-2-*||---2--2--2--4------------------------------------
-|-4-4-4-4--3-3-3-3-3-3-3--||---2--2--2--2------------------------------------
-|-------------------------||---0--0--0--0------------------------------------
Repeat 3x then (Play this part only 1st time through)
VERSE 2
E5 D5
-|-x-x-x-x--x-x-x-x-x-x-x--||-------------------------------------------------
-|-x-x-x-x--x-x-x-x-x-x-x--||-------------------------------------------------
-|-x-x-x-x--7-7-7-7-7-7-7-*||-------------------------------------------------
-|-2-2-2-2--7-7-7-7-7-7-7-*||-------------------------------------------------
-|-2-2-2-2--5-5-5-5-5-5-5--||-------------------------------------------------
-|-0-0-0-0-----------------||-------------------------------------------------
Repeat 3x
VERSE 2A
G5 A5 Em/B C#m7
-|-x-x-x-x--x--x--x--x--x--x--x--||-------------------------------------------
-|-x-x-x-x--x--x--x--x--x--x--x--||-------------------------------------------
-|-x-x-x-x--x--x--x--x--x--x--x-*||--9---------9------------------------------
-|-5-5-5-5--7--7--7--7--7--7--7-*||--9---------9------------------------------
-|-5-5-5-5--7--7--7--7--7--7--7--||--x---------x------------------------------
-|-3-3-3-3--5--5--5--5--5--5--5--||--7---------9------------------------------
Repeat 2x
CHORUS
E5 D5 G5 A5
-|--x--x--x-x--x-x-x-x--||------------------------------------------------------
-|--x--x--x-x--x-x-x-x--||------------------------------------------------------
-|--x--x--7-7--x-x-x-x-*||------------------------------------------------------
-|--2--2--7-7--5-5---7-*||------------------------------------------------------
-|--2--2--5-5--5-5---7--||------------------------------------------------------
-|--0--0-------3-3---5--||------------------------------------------------------

CHORUS A
-|-----------||---------------------------------------------------------------
-|--9-8-6-4--||---------------------------------------------------------------
-|----------*||---------------------------------------------------------------
-|----------*||---------------------------------------------------------------
-|-----------||---------------------------------------------------------------
-|-----------||---------------------------------------------------------------

BRIDGE
E5 Cmaj7 C#m7
-|----------x----x-||------------------------------------
-|----------5----5-||------------------------------------
-|----------4----4-||------------------------------------
-|-2--------2----2-||------------------------------------
-|-2-----2--3----4-||------------------------------------
-|-0-2-3----x----x-||------------------------------------
repeat 4x, play c#m7 on 2nd time only


/
How To Set Up Higher Praise As Your Home Page
Copyright 1999, Higher Praise HigherPraise,Inc. All rights reserved. Terms of Use

Enjoy A Life Changing Experience

 
 
 
HigherPraise, Higher Praise, HigherPraise, Higher Praise, HigherPraise

Members..Sign Up. LogIn

 
 

Higher Praise Other Sites
 
 

HigherPraise.org/
Praise And Worship
www.higherpraise.org

HigherPraise.net
Christian Resources
www.higherpraise.net

HigherPraiseTube.com
Videos And Audios
www.higherpraisetube.com.


ChristianLyrics.org

Lyrics And Chrords
www.christianlyrics.org

ChristianChordsLyrics

Lyrics And Chrords
www.christianchordslyrics.com

ChristianChordLyrics

Lyrics And Chrords
www.christianchordlyrics.com

WorshipLyrics.org
10.000 Illustrations
www.worshiplyrics.org

WorshipLyrics.net
10.000 Illustrations
www.worshiplyrics.net

PraiseLyrics.com
PowerPoint Lyrics

www.praiselyrics.com

PraiseLyrics.org
PowerPoint Lyrics

www.praiselyrics.org

1GodTube.com
Chistian Videos

www1godtube..com

OneGodTube.com
Chistian Videos

www.onegodtube..com

 

/
Copyright 1999 - 2019, Higher Praise™ HigherPraise™,Inc. All rights reserved. Terms of Use