Higher Praise - Guitar Chords, Lyrics  GuitarTabs -  Praise nad Worship Music And Christian Songs

Higher Praise - Guitar Tabs, Guitar Chords, Lyrics
   Lyrics, Chords And Tabs
   Popular Lyrics Chords Tab
   Power Point Lyrics
   Praise & Worship Music
   Christian Music Videos
   15900 Videos & Audios
   Midi Files
   Worship Questions
   Christmas Chords, Lyrics
   Lyrics, Chords Tabs Rated

Sermon Outlines And Audio Sermons
   9344 Sermon Outlines
   N.T. Sermon Outlines
   O.T. Sermon Outlines
   Special Guest Outlines
   10.000 Illustrations
   Sunday School Studies
   Bible College Studies
   Greatest Preachers
   Bible Research Tools
Audio Sermons
   2895 Audio Sermons
   85 Sermon Videos
   291 Special Guests Serm

   Complete Audio Bible
Higher Praise Sunday School Teaching
   Children's NT Studies
   Children's OT Studies

   98 Children's Midis
   Gospel For Kids Movie
   Children's JESUS Film
Higher Praise Christian Video Library ,Videos
   Christian Television
   TBN TV Live
   15,000 Videos - HP Tube
   712 Youth Music Vids
  Christian Video Library
   Praise Videos #1 & #2
   85 Sermon Videos
   Prophecy Film -Videos
   JESUS Film -Video
   Childrens JESUS Film
   Gospel For Kids Movie
   Passion Of The Christ
   Noah, Sodom, Sinai, Ark
   Tsunami Videos Photos
News And Information
   Testimonies
   Submit Lyrics, Tabs, Serm
   10.000 Illustrations
   Bible College Course
   Clipart & Web Graphics
   Greatest Preachers
   Complete Talking Bible
   Christian Chat Rooms
   Links Church Resource
   HP Statement Of Faith
Download Clipart
   Audio Sermons
   Clipart & Web Graphics
   Church Administration
   Bible Study Software
   Screen Savers Software
   Verse A Day Software
   Educational Games
   Trade Center Photos

   Soft. Search Engine
Higher Praise News
   Current News
    Archived News
   Submit News
   Newsletter   Higher Praise Interact Prayer
   Prayer For All Needs
   
Submit Lyrics, Sermons
   
Contact Higher Praise
   
Advertising 
   Privacy Policy
//
He Died For You,  Click For Answer! This Is Who Jesus Is Video

'
 
0-9 A B C D E F G H I J K L M N O P Q R S T U V W X Y Z
.

//
Click For Printable...Version Of This File
 

Failure to Excommunicate


by Relient K




Well, this song has been posted a number of times, and Iív noticed that
the intro has been messed up every single time and there are parts where
it is variations of power chords and not actual power chords, which sound
a lot closer to the song.  Not to mention that, but this tab that I am
submitting has rhythms in it and everything, so it will be very exact
when it comes to that.  I would appreciate this tab being put up on the
website for many peoples sakes.

 Tab By: Homsar
 Relient K - Failure To Excommunicate
 From - The Anatomy of Tongue In Cheek
 
 I just need to take a moment to say, that I know this intro
is almost 100% correct, if it already isn't.  The only thing
that might not be is the rhythm of the lead part, but thatís it.
I know for a fact that he does pick an octave down during the 
lead part. As for the rest of the song, I am almost 100% sure about
the fretting.  The acoustic part could be different because I donít know
what voicing he uses.
 
 The Intro - (most complex part of the song)

 This Part is played by Bass, throughout the entire intro
   |==|--|    |==|--|    |==|--|    |==|--|
 G- ----------|----------|----------|----------|
 D- ------16--|------16--|------17--|------16--|
 A- 14-14-----|12-12-----|14-14-----|14-14-----|
 E- ----------|----------|----------|----------|
     x's 4 Each
   
 
Lead Part-

Theissen fingerpicks this part.
     All Sixteenth Notes
 e ----10-----10-----10-----10-----10--|----9-----9-----9-----9-----9--|
 B ------------------------------------|-------------------------------|
 G 7-7----7-7----7-7----7-7----7-7----6|6-6---6-6---6-6---6-6---6-6---7| 
 D ------------------------------------|-------------------------------|
 A ------------------------------------|-------------------------------|
 E ------------------------------------|-------------------------------|
   

 e ----12-----12-----12-----12-----12--|----11-----11-----12-----11-----10--|
 B ------------------------------------|------------------------------------|
 G 9-9----9-9----9-9----9-9----9-9----8|8-8----8-8----8-8----9-9----8-8----7|PM
 D ------------------------------------|------------------------------------|
 A ------------------------------------|------------------------------------|
 E ------------------------------------|------------------------------------|

Now its all Eight Notes On the "and (or off)" beats
The Top Notes Are played by one guitarist,
and the bottom ones are played by another.

    1 + 2 + 3 + 4 +  1 + 2 + 3 + 4 +  1 + 2 + 3 + 4 +  1 + 2 + 3 + 4 +
 e- --10--10--10--10|--9---9---9---9-|--12--12--12--12|--11--11--11--11|x's 2
 B- xx7-xx7-xx7-xx7-|xx7-xx7-xx7-xx7-|xx8-xx8-xx8-xx8-|xx7-xx7-xx7-xx7-|
 G- ----------------|----------------|----------------|----------------|
 D- ----------------|----------------|----------------|----------------| 
 A- ----------------|----------------|----------------|----------------|
 E- ----------------|----------------|----------------|----------------|


 
(Thereís a page break here)





1st Verse
    1 + 2 + 3 + 4 +  1 + 2 + 3 + 4 +  1 + 2 + 3 + 4 +  1 + 2 + 3 + 4 +
 e- ----------------|----------------|----------------|----------------|xís 2
 B- ----------------|----------------|----------------|----------------|
 G- 4-------------4-|----------------|7-7-7-7-7-7-7-7-|----------------|
 D- 4-------------4-|5-------------5-|7-7-7-7-7-7-7-7-|7-7-7-7-7-7-7-7-|
 A- 2-------------2-|5-------------5-|5-5-5-5-5-5-5-5-|7-7-7-7-7-7-7-7-|
 E- ----------------|3-------------3-|----------------|5-5-5-5-5-5-5-5-|
    
 
    1 + 2 + 3 + 4 +  1 + 2 + 3 + 4 +  1 + 2 + 3 + 4 +  1 + 2 + 3 + 4 +
 e- ----------------|----------------|----------------|----------------|
 B- ----------------|----------------|----------------|----------------|
 G- ----------------|----------------|----------------|----------------|
 D- 5---5-5-5-5-5-5-|7-7-7-7-7-7-7-7-|8-8-8-8-8-8-8-8-|9---9---7---7---|
 A- 5---5-5-5-5-5-5-|7-7-7-7-7-7-7-7-|9-9-9-9-9-9-9-9-|9---9---7---7---|
 E- 3---3-3-3-3-3-3-|5-5-5-5-5-5-5-5-|6-6-6-6-6-6-6-6-|7---7---5---5---|
         PM---------|     PM---------|     PM---------|
    1 + 2 + 3 + 4 +  1 + 2 + 3 + 4 +  1 + 2 + 3 + 4 +  1 + 2 + 3 + 4 +
 e- ----------------|----------------|----------------|----------------|
 B- ----------------|----------------|----------------|----------------|
 G- ----------------|----------------|7---7---7-7-7-7-|----------------|
 D- 5---5---5-5-5-5-|7---7---7-7-7-7-|7---7---7-7-7-7-|9---9---7---7---|
 A- 5---5---5-5-5-5-|7---7---7-7-7-7-|5---5---5-5-5-5-|9---9---7---7---|
 E- 3---3---3-3-3-3-|5---5---5-5-5-5-|----------------|7---7---5---5---|
 


   1 + 2 + 3 + 4 +  1 + 2 + 3 + 4 +
e- ----------------|----------------|
B- ----------------|----------------|
G- ----------------|----------------|End Pre-chorus
D- 7---7---7---7---|9---9---22--22--|
A- 7---7---7---7---|9---9---00--00--|
E- 5---5---5---5---|7---7---00--00--|
                          PM------|
2nd Guitar           1 + 2 + 3 + 4 +
e- ----------------|----------------|
B- ----------------|----------------|
G- ----------------|----------------|
D- ----------------|----------------|
A- ----------------|--------012--012|
E- ----------------|----------------|
                              H   H

  And from what I can hear, 
thereís no guitar until right 
after the first Chorus, during the lead part,
which is exactly the same as the intro, so,
just reference to that part, right after the
solo bass part.

For the last part thereís an acoustic guitar that Im not sure
about.  Iíll just put the chords that I think they play.

Dmaj, Amaj, Bm, Gmaj, Amaj

Thatís the basic jist of it. 
If you have any problems with it, contact me at,
 


/
How To Set Up Higher Praise As Your Home Page
Copyright 1999, Higher Praise HigherPraise,Inc. All rights reserved. Terms of Use

Enjoy A Life Changing Experience

 
 
 
HigherPraise, Higher Praise, HigherPraise, Higher Praise, HigherPraise

Members..Sign Up. LogIn

 
 

Higher Praise Other Sites
 
 

HigherPraise.org/
Praise And Worship
www.higherpraise.org

HigherPraise.net
Christian Resources
www.higherpraise.net

HigherPraiseTube.com
Videos And Audios
www.higherpraisetube.com.


ChristianLyrics.org

Lyrics And Chrords
www.christianlyrics.org

ChristianChordsLyrics

Lyrics And Chrords
www.christianchordslyrics.com

ChristianChordLyrics

Lyrics And Chrords
www.christianchordlyrics.com

WorshipLyrics.org
10.000 Illustrations
www.worshiplyrics.org

WorshipLyrics.net
10.000 Illustrations
www.worshiplyrics.net

PraiseLyrics.com
PowerPoint Lyrics

www.praiselyrics.com

PraiseLyrics.org
PowerPoint Lyrics

www.praiselyrics.org

1GodTube.com
Chistian Videos

www1godtube..com

OneGodTube.com
Chistian Videos

www.onegodtube..com

 

/
© Copyright 1999 - 2019, Higher Praise™ HigherPraise™,Inc. All rights reserved. Terms of Use