Higher Praise - Guitar Chords, Lyrics  GuitarTabs -  Praise nad Worship Music And Christian Songs

Higher Praise - Guitar Tabs, Guitar Chords, Lyrics
   Lyrics, Chords And Tabs
   Popular Lyrics Chords Tab
   Power Point Lyrics
   Praise & Worship Music
   Christian Music Videos
   15900 Videos & Audios
   Midi Files
   Worship Questions
   Christmas Chords, Lyrics
   Lyrics, Chords Tabs Rated

Sermon Outlines And Audio Sermons
   9344 Sermon Outlines
   N.T. Sermon Outlines
   O.T. Sermon Outlines
   Special Guest Outlines
   10.000 Illustrations
   Sunday School Studies
   Bible College Studies
   Greatest Preachers
   Bible Research Tools
Audio Sermons
   2895 Audio Sermons
   85 Sermon Videos
   291 Special Guests Serm

   Complete Audio Bible
Higher Praise Sunday School Teaching
   Children's NT Studies
   Children's OT Studies

   98 Children's Midis
   Gospel For Kids Movie
   Children's JESUS Film
Higher Praise Christian Video Library ,Videos
   Christian Television
   TBN TV Live
   15,000 Videos - HP Tube
   712 Youth Music Vids
  Christian Video Library
   Praise Videos #1 & #2
   85 Sermon Videos
   Prophecy Film -Videos
   JESUS Film -Video
   Childrens JESUS Film
   Gospel For Kids Movie
   Passion Of The Christ
   Noah, Sodom, Sinai, Ark
   Tsunami Videos Photos
News And Information
   Testimonies
   Submit Lyrics, Tabs, Serm
   10.000 Illustrations
   Bible College Course
   Clipart & Web Graphics
   Greatest Preachers
   Complete Talking Bible
   Christian Chat Rooms
   Links Church Resource
   HP Statement Of Faith
Download Clipart
   Audio Sermons
   Clipart & Web Graphics
   Church Administration
   Bible Study Software
   Screen Savers Software
   Verse A Day Software
   Educational Games
   Trade Center Photos

   Soft. Search Engine
Higher Praise News
   Current News
    Archived News
   Submit News
   Newsletter   Higher Praise Interact Prayer
   Prayer For All Needs
   
Submit Lyrics, Sermons
   
Contact Higher Praise
   
Advertising 
   Privacy Policy
//
He Died For You,  Click For Answer! This Is Who Jesus Is Video

'
 
0-9 A B C D E F G H I J K L M N O P Q R S T U V W X Y Z
.

//
Click For Printable...Version Of This File
 

Missions Flame


by Matt Redman




Song Number 4328656 
Author Matt Redman 
Copyright 2004 Thankyou Music (Admin. by EMI Christian Music Publishing) 
 
Catalog Thankyou Music  
Admin EMI Christian Music Publishing  

This is in standard tunning. I did it on my acoustic and its my first tab,
just to let you know. There are a couple of different variations that you 
can play on the channel because I heard two guitars, so I just took the 
louder one. Enjoy


Intro/Verse

(work with the notes/reverb and sounds like "multi-head delay")
e -------------------------------------------------------------------- 
b --------------------------------------------------------------------
g 2 4 2 4 2 4 2 4---------- 2 4 2 4-----------------------------------
d --------------- 2 4-------------------------------------------------
a ------------------- 4 2 4-------------------------------------------
e --------------------------------------------------------------------

Lick before Chorus (add some distortion/gain)

e -------------------------------------------------------------------- 
b 4 4 4 4 / 6 6 6 6---------------------------------------------------
g --------------------------------------------------------------------
d --------------------------------------------------------------------
a 2 2 2 2 / 4 4 4 4---------------------------------------------------
e x-x-x-x---x-x-x-x---------------------------------------------------

Chorus 

e x-----------------x---------------x---------------------------------- 
b x-----------------x---------------x----------------------------------
g 11----------------9---------------4 ---------------------------------
d    --->              --->           ---> (means to just keep playing)    
a 9-----------------7---------------2----------------------------------
e x-----------------x---------------x----------------------------------
  You should be the praise of every tongue 
  You should be the joy ...

e x----------------------------------x---------------------------------- 
b x----------------------------------x----------------------------------
g 6----------------------------------4----------------------------------
d    --->              --->           ---> (means to just keep playing)
a 4----------------------------------2----------------------------------
e x----------------------------------x----------------------------------
  Until the fullness of Your kingdom comes

e x---------------------------x--------------------x--------------------- 
b x---------------------------x--------------------4---------------------
g 6---------------------------11-------------------x---------------------
d    --->              --->           ---> 
a 4---------------------------9--------------------2---------------------
e x---------------------------x--------------------x---------------------
  Until that final revelation dawns        Send us out

Channel

e xxx--x---------------------------x-------------------------------------- 
b xxx--x---------------------------x--------------------------------------
g xxx--x  (repeat until ........ 
d xxx--h5--------------------------7--------------------------------------- 
a 555--5---------------------------5---------------------------------------
e 333--3---------------------------3---------------------------------------
  Every tribe, Every tongue        Every creature ...
  Every heart, Every soul          Will sing Your praise
  Every note, Every strain         Every melody
 
e x-------------x--------------------------x-------------------------
b x-------------x--------------------------x-------------------------
g x-------------x--------------------------x-------------------------
d 4-------------5--------------------------5-------------------------
a 4-------------5--------------------------5-------------------------
e 2-------------3--------------------------3-------------------------
  Every Harmony Will sing Your praise (2x) Will sing Your praise

Outro

e x-------------x-------------x-------------x----------------------------- 
b x-------------x-------------x-------------x-----------------------------
g 4-------------7-------------9------------11-----------------------------
d x-------------x-------------x-------------x-----------------------------
a 2-------------5-------------7-------------9-----------------------------
e x-------------x-------------x-------------x-----------------------------
  Send us out / Send us out / Send us out / Send us out 

Okay this is where it gets tricky, listen to the CD and if you have a stereo
delay (like on the Line 6 delay mod) hit it here

e ----------------------------------------------------------------------- 
b 15----14----------------------------------------------------------------
g x------x---------------------------------------------------------------
d x (8x)  (4x) ---> repeat until last Send us out
a 15----15----------------------------------------------------------------
e x------x---------------------------------------------------------------
  Send us out 

e --------------------------x------------------------------------------ 
b 15------------------------4------------------------------------------
g x-------------------------x------------------------------------------
d x (16x)     End on this:
a 15------------------------2------------------------------------------
e x-------------------------x------------------------------------------
  Send us out

 


/
How To Set Up Higher Praise As Your Home Page
Copyright 1999, Higher Praise HigherPraise,Inc. All rights reserved. Terms of Use

Enjoy A Life Changing Experience

 
 
 
HigherPraise, Higher Praise, HigherPraise, Higher Praise, HigherPraise

Members..Sign Up. LogIn

 
 

Higher Praise Other Sites
 
 

HigherPraise.org/
Praise And Worship
www.higherpraise.org

HigherPraise.net
Christian Resources
www.higherpraise.net

HigherPraiseTube.com
Videos And Audios
www.higherpraisetube.com.


ChristianLyrics.org

Lyrics And Chrords
www.christianlyrics.org

ChristianChordsLyrics

Lyrics And Chrords
www.christianchordslyrics.com

ChristianChordLyrics

Lyrics And Chrords
www.christianchordlyrics.com

WorshipLyrics.org
10.000 Illustrations
www.worshiplyrics.org

WorshipLyrics.net
10.000 Illustrations
www.worshiplyrics.net

PraiseLyrics.com
PowerPoint Lyrics

www.praiselyrics.com

PraiseLyrics.org
PowerPoint Lyrics

www.praiselyrics.org

1GodTube.com
Chistian Videos

www1godtube..com

OneGodTube.com
Chistian Videos

www.onegodtube..com

 

/
Copyright 1999 - 2019, Higher Praise™ HigherPraise™,Inc. All rights reserved. Terms of Use