Higher Praise - Guitar Chords, Lyrics  GuitarTabs -  Praise nad Worship Music And Christian Songs

Higher Praise - Guitar Tabs, Guitar Chords, Lyrics
   Lyrics, Chords And Tabs
   Popular Lyrics Chords Tab
   Power Point Lyrics
   Praise & Worship Music
   Christian Music Videos
   15900 Videos & Audios
   Midi Files
   Worship Questions
   Christmas Chords, Lyrics
   Lyrics, Chords Tabs Rated

Sermon Outlines And Audio Sermons
   9344 Sermon Outlines
   N.T. Sermon Outlines
   O.T. Sermon Outlines
   Special Guest Outlines
   10.000 Illustrations
   Sunday School Studies
   Bible College Studies
   Greatest Preachers
   Bible Research Tools
Audio Sermons
   2895 Audio Sermons
   85 Sermon Videos
   291 Special Guests Serm

   Complete Audio Bible
Higher Praise Sunday School Teaching
   Children's NT Studies
   Children's OT Studies

   98 Children's Midis
   Gospel For Kids Movie
   Children's JESUS Film
Higher Praise Christian Video Library ,Videos
   Christian Television
   TBN TV Live
   15,000 Videos - HP Tube
   712 Youth Music Vids
  Christian Video Library
   Praise Videos #1 & #2
   85 Sermon Videos
   Prophecy Film -Videos
   JESUS Film -Video
   Childrens JESUS Film
   Gospel For Kids Movie
   Passion Of The Christ
   Noah, Sodom, Sinai, Ark
   Tsunami Videos Photos
News And Information
   Testimonies
   Submit Lyrics, Tabs, Serm
   10.000 Illustrations
   Bible College Course
   Clipart & Web Graphics
   Greatest Preachers
   Complete Talking Bible
   Christian Chat Rooms
   Links Church Resource
   HP Statement Of Faith
Download Clipart
   Audio Sermons
   Clipart & Web Graphics
   Church Administration
   Bible Study Software
   Screen Savers Software
   Verse A Day Software
   Educational Games
   Trade Center Photos

   Soft. Search Engine
Higher Praise News
   Current News
    Archived News
   Submit News
   Newsletter   Higher Praise Interact Prayer
   Prayer For All Needs
   
Submit Lyrics, Sermons
   
Contact Higher Praise
   
Advertising 
   Privacy Policy
//
He Died For You,  Click For Answer! This Is Who Jesus Is Video

'
 
0-9 A B C D E F G H I J K L M N O P Q R S T U V W X Y Z
.

//
Click For Printable...Version Of This File
 

Healing Waters of the Tigris w/solo


by Tourniquet




Song: Healing Waters of the Tigris
Album: "Where Moth and Rust Destroy"
Artist: Tourniquet
Words and Music by Ted Kirkpatrick
copyright 2003 Metal Blade Records Inc.


The name of the third river is the Tigris; it runs along the 
east side of Asshur.  And the fourth river is the Euphrates.
Gensis 2:14

For the Lamb at the center of the throne will be their 
shepherd; he will lead them to springs of living water.  
And God will wipe away every tear from their eyes.
Revelation 7:17

Guitar tuned down to D (2 frets), all strings same amount.


(1:19) Riff-A
|------------|--------------------------------------------------------|
|------------|--------------------------------------------------------|
|------------|*-----------------------------------------------------*-|
|--4--4--4---|*--4--4--4-------4--4--4-------4--4--4----2/4--4--4---*-|
|--4--4--4---|---4--4--4-------4--4--4-------4--4--4----2/4--4--4-----|
|--2--2--2---|---2--2--2-------2--2--2-------2--2--2----0h2--2--2-----|


(1:39)         (Play 4 times)
|-------------------------------------------------------|
|-------6h7p6---6---------------(1/2 stp)---------------|
|*--6h7-------7---7-6-----------6b-r-------------------*|
|*--------------------------9--------9-----(1/2 stp)---*|
|-----------------------------------------9b-r----------|
|-------------------------------------------------------|


(2:00) 
|-----------------------------------------------------------------------------|
|-----------------------------------------------------------------------------|
|-----------------------------------------------------------------------------|
|----------------4------------------4------------------4------------b(1/4)4r--|
|----------------4------------------4------------------4------------b(1/4)4r--|
|-2-2-2-2---2-2--2---2-2-2-2---2-2--2---2-2-2-2---2-2--2---2-2-2-2---2-2--2---|


|-----------------------------------------------------------------------------|
|-----------------------------------------------------------------------------|
|-----------------------------------------------------------------------------|
|----------------4------------------4------------------4----------------------|
|----------------4------------------4------------------4----------------------|
|-2-2-2-2---2-2--2---2-2-2-2---2-2--2---2-2-2-2---2-2--2---2-2-2-2---2-2--5-4-|

|-----------------------------------------------------------------------------|
|-----------------------------------------------------------------------------|
|----------------------------------------------------------------------(1/4)--|
|----------------4------------------2h4----------------4-----------------b4r--|
|----------------4------------------2h4----------------4-----------------b4r--|
|-2-2-2-2---2-2--2---2-2-2-2---2-2--2---2-2-2-2---2-2--2---2-2-2-2---2-2--2---|

|-----------------------------------------------------------------------------|
|-----------------------------------------------------------------------------|
|-----------------------------------------------------------------------------|
|----------------4------------------4------------------4----------------------|
|----------------4------------------4------------------4----------------------|
|-2-2-2-2---2-2--2---2-2-2-2---2-2--2---2-2-2-2---2-2--2---2-2-2-2---2-2--5-4-|




(2:21) (Play 4 times)
|-----------------------------------------------------|
|-----------------------------------------------------|
|*---------------------------7---7-7-----------------*|
|*--4---4-4----------4/7-6---7---7-7----7----7-7-9---*|
|---4---4-4--------4-------4-5---5-5----7----7-7-9----|
|---2---2-2-----------------------------5----5-5-7----|

Now play Riff-A, then...


CHORUS (play twice)
(3:00) 
|-----------------------------------------------------------------------------|
|-----------------------------------------------------------------------------|
|*----------------------------------------------------------------------------|
|*---------------4------------------4-6----------------7------------------7\--|
|----------------4------------------4-6----------------7------------------7\--|
|-2-2-2-2---2-2--2---2-2-2-2---2-2--2-4-5-5-5-5---5-5--5---5-5-5-5---5-5--5\--|


|-----------------------------------------------------------------------------|
|-----------------------------------------------------------------------------|
|-----------------------------------------------------------------------------|
|----------------2------------------2/---------------------12-----------------|
|----------------2------------------2/---------------------12-----------------|
|-0-0-0-0---0-0--0---0-0-0-0---0-0--0--10-10-10-10--10-10--10---10-10-10-10---|


|----------------|
|----------------|
|---------------*|
|--------12-11\-*|
|--------12-11\--|
|-10-10--10--9\--|     into Riff-A again, then...




Fast Bridge Part (play 4 times)

(3:31)
|-----------------------------------------------------------------------|
|-----------------------------------------------------------------------|
|*------------------------7--6--4---------------------------------------|
|*------------------------7--6--4--4------------------------7--6--2--4--|
|-------------------------5--4--2--4------------------------7--6--2--4--|
|-222222222222222222222222---------22222222222222222222222225--4--0--2--|

|-----------------------------------------------------------------------|
|----------------------------------3--5--5/7\5--3-----------------------|
|-------------------------7--6--4------------------6-4--6-4--2--1------*|
|-------------------------7--6--4---------------------------------2-4--*|
|-------------------------5--4--2---------------------------------------|
|-222222222222222222222222----------------------------------------------|



Guitar Solo #1
(4:16)
|----------------------------------------------------------------------------|
|------------------------------(1/2 step vibrato)----------------------------|
|-11/13-11/13--------------------^~~~~~~~~~~~~~~^~~~~~~~~~~~~^~~~~~~~~~~~~^~~|
|----------------------------------------------------------------------------|
|----------------------------------------------------------------------------|
|----------------------------------------------------------------------------|


|----------------------------------------------------------------------------|
|----------------------(1/2)-------------------------------------------------|
|~~~~~^~~~~~~~~~~~~~~~~~^bh----h15-h16---------------------------r-----------|
|----------------------------------------------------------------------------|
|----------------------------------------------------------------------------|
|----------------------------------------------------------------------------|


(4:19)
|----------------------------------------------------------------------------|
|----------------------------------------------------------------------------|
|-h17--------h18---------------p17------------p14--h17-p14\13------------h16-|
|----------------------------------------------------------------------------|
|----------------------------------------------------------------------------|
|----------------------------------------------------------------------------|



|----------------------------------------------------------------------------|
|----------------------------------------------------------------------------|
|-p15-----------p13-\12-----------------------------------------h13-p12-h15--|
|----------------------------------------------------------------------------|
|----------------------------------------------------------------------------|
|----------------------------------------------------------------------------|



(4:22)
|----------------------------------------------------------------------------|
|----------------------------------------------------------------------------|
|-p13-----------p12-h13-p12---------------13-p12-h13-p12---------------13-p12|
|--------------------------------------------------------14------------------|
|----------------------------------------------------------------------------|
|----------------------------------------------------------------------------|


|----------------------------------------------------------------------------|
|----------------------------------------------------------------------------|
|-h13-p12---------------13-p12-h13-p12---------------(1/2 step vibrato)------|
|---------14---------------------------14---------13---b-------r---b------r--|
|----------------------------------------------------------------------------|
|----------------------------------------------------------------------------|


(4:24)
|----------------------------------------------------------------------------|
|--------------------------------------13-h14--p13---------------------------|
|--------------------------13-14h15------------------15---p14---p13---h14-h16|
|------------13-h15-h16------------------------------------------------------|
|-16--15h16------------------------------------------------------------------|
|----------------------------------------------------------------------------|


|----------------------------------------------------------------------------|
|---14-h15-p14---------------------------------------------------------------|
|-----------------16--14-p13---14-p13---------------13---14----13------------|
|--------------------------------------16--15---16------------------16---15--|
|----------------------------------------------------------------------------|
|----------------------------------------------------------------------------|


(4:27)
|----------------------------------------------------------------------------|
|----------------------------------------------------------------------------|
|------------------------------------------------------------------------11--|
|--------------------------------------------------------------------15------|
|-16~~~~~~~~~~~~~~~~~~~~~~~~~~~~~~~~~~~~~~~~~~~~~~~~~~~~~~~~~~~~~~~~---------|
|----------------------------------------------------------------------------|


|----------------------------------------------------------------------------|
|----------------------------------------------------(1/2 step)--------------|
|-11/18-17~~~~~~~~17\12~~~~~~~~~~~~~^---------------12br---------------------|
|---------------------------------------14-13\11----------14-13p11--(h12h13)-|
|----------------------------------------------------------------------------|
|----------------------------------------------------------------------------|



(4:32)
|----------------------------------------------------------------------------|
|----------------------------------------------------------------------------|
|--------------------11--13-/15----------13-/14----------14--17------14------|
|-14p13p11---11--13--------------13-h14----------14-h16----------16----------|
|----------------------------------------------------------------------------|
|----------------------------------------------------------------------------|



|---------------------------------------------16--14b--r---------------------|
|-----14--16--17--14--16--17--14-h16--17--14-----(1 step)-17---14b--r--b--r--|
|-16-------------------------------------------------------------(1.5 step)--|
|----------------------------------------------------------------------------|
|----------------------------------------------------------------------------|
|----------------------------------------------------------------------------|


|-----------------------------------------------14-------17p14---------------|
|-16h17--16--14--17p16--14-------------------------17p14---------------------|
|---------------------------17p16p14-h16b------------------------------------|
|---------------------------------------(1-step)-----------------------------|
|----------------------------------------------------------------------------|
|----------------------------------------------------------------------------|


|---------14--------------14-14----------------------------------(1/2 step)--|
|-14--17----------14--17---------17--14------------------------14b-----------|
|---------------------------------------17p16p14---------------14b-----------|
|------------------------------------------------16~~~~~~~~~~~~--------------|
|--------------------------------------------------(1/2 step vibrato)--------|
|----------------------------------------------------------------------------|


(4:40)
|--------------------------------------------14---15----16p15-14-------------|
|-16br---14--16br--br-------------14--16h17-----------------------17--16-h17-|
|-16br---14--16br--br--14--16h17---------------------------------------------|
|-(1/2)------(1/2)-----------------------------------------------------------|
|----------------------------------------------------------------------------|
|----------------------------------------------------------------------------|



|--14--------------17-14-----------------17p14----------------17p14----------|
|------17--14--17--------14h17-----14h17-------17----14h17p14-------17--14---|
|----------------------------------------------------------------------------|
|----------------------------------------------------------------------------|
|----------------------------------------------------------------------------|
|----------------------------------------------------------------------------|


(4:44)
|-17b--(1stp)----------(1-1/2stp)------17b---r--b---17-p14-------------------|
|--(1 step bend into 1-1/2 step bend)----(1stp)-(1/2st)-----17-p14-----------|
|-------------------------------------------------------------------17p16p15-|
|----------------------------------------------------------------------------|
|----------------------------------------------------------------------------|
|----------------------------------------------------------------------------|



|-17b-----17-p14----------------------------------14-------------------------|
|---(1stp)--------17--14--------------17--14----------14h17-14----17p14------|
|-------------------------17p16p14-----------16b---------------16-------b16r-|
|----------------------------------------------(1stp)-----------------(1/2st)|
|----------------------------------------------------------------------------|
|----------------------------------------------------------------------------|
							


|----------------------------------------------------------------------------|
|----------------------------------------13--14x---13x-14h15---14--13h14-----|
|-p14------16-----14--16p14------14-h16-----------------------------------17-|
|-------16-----16------------16----------------------------------------------|
|----------------------------------------------------------------------------|
|----------------------------------------------------------------------------|




	End of Guitar Solo #1
|-----------------------------------|
|------------------(1stp)-----------|
|p16p14-----16---14b----r-----------|
|--------16---------------16\-------|
|-----------------------------------|
|-----------------------------------|








(4:50 - 5:12) Chords duing drum solo   (Play 2 times)
|----------------------------------------------------------------------------|
|----------------------------------------------------------------------------|
|*------------------------------------------------------------7------6---4--*|
|*-4-4-4-------------4-4-4---------------4-4-4----------------7------6---4--*|
|--4-4-4-------------4-4-4---------------4-4-4----------------5------4---2---|
|--2-2-2-------------2-2-2---------------2-2-2-------------------------------|









Guitar Solo #2 (a short one)
(5:12)
|--0/9-9-12-9---9--12b----r--9-7-h9-p7-h9------------------------------------|
|--------------------(2stp)----------------9--11-h12--11-p9--11-p9-----------|
|------------------------------------------------------------------12p11p9---|
|----------------------------------------------------------------------------|
|----------------------------------------------------------------------------|
|----------------------------------------------------------------------------|


|-----9-----------------------------------12-p9----------9-------------------|
|----------------------------------12-p9---------9--12b----12-p9----12p9-----|
|-11b-----(12)r-p9----9------11b---------------------(1 step)----11------11br|
|--(1/2)---/-------11---------------------------------------------------(1/2)|
|---------/------------------------------------------------------------------|
|--------strike while still bent---------------------------------------------|


(5:17)
|----------------------------------------------------------------------------|
|------------------------------------------------------------------11h12p11--|
|p9----9-h11-9~~~~~~~~~~~\4/11----11h12h13--14----p13-12p11--12h13-----------|
|---11--------(1 step----------14--------------------------------------------|
|---------------vibrato)-----------------------------------------------------|
|----------------------------------------------------------------------------|







|----------------------------------------------------------------------------|
|----------12h13p12----------------------------------------------------------|
|-13-12-13----------13-12h13-14p13-12--14-12p11----------------11~~~~~~~~~~~~|
|-----------------------------------------------14-p11-14~~~~----------------|
|----------------------------------------------------------------------------|
|----------------------------------------------------------------------------|

(5:22)
|----------------------------------------------------------------------------|
|------(1stp)----------------------------------------------------------------|
|-11/13b--r~~~~~~~~~~~16p13---------16p13-----------16p13-----------16p13----|
|----------------------------------------------------------------------------|
|----------------------------------------------------------------------------|
|----------------------------------------------------------------------------|

|----------------------------------------------------------------------------|
|----------------/14~~~~~~~~~~~~~~~~~~~~~~~~~~~~~~~~~~~~~~~~~~~~~~~~~~~~~~~\-|
|---16p13\5------------------------------------------------------------------|
|----------------------------------------------------------------------------|
|----------------------------------------------------------------------------|
|----------------------------------------------------------------------------|


(5:28)                     (5:32)
   play 8X      play 8x
|------------|------------|--------------------------------------------------|
|-13h14p13---|-12h14p12---|--------------------------------------------------|
|---------13-|---------12-|-14--16--16/18--16--14--13--11--11/13-11--9--7--9-|
|------------|------------|-12--14--14/16--14--12--11---9---9/11--9--7--5--7-|
|------------|------------|--------------------------------------------------|
|------------|------------|--------------------------------------------------|


End of Guitar Solo #2
|-----------------------|
|-----------------------|
|-6~~~\-----------------|
|-4~~~\-----------------|
|-----------------------|
|-----------------------|


(5:49) Guitar Solo #3 
This is really several small solos.  Some of this may be played by two 
guitars with different effects but this is transcribed to give it the 
complete sounds and harmonies produced on the original recording.
|----------------------------------------------------------------------------|
|----------------------------(1/2)-------------------------------------------|
|-5~~~~~~~~~~~~~~~~~~~~~~~~~~~~b--(6)--(6)-(6)~~~~~~~~~~~~~~~~~~~~~~~~~~~/9~~|
|----------------------------------------------------------------------------|
|----------------------------------------------------------------------------|
|----------------------------------------------------------------------------|
                                              |--let ring---------> 
|------------------------------------------------8-----8-----------------/19-|
|------------------------------------(1/2)-----------8-------------------/19-|
|-~~~~~~~~~~~(11>10)~~~~~~(11)r----6--8br--6---5---5---------------------/17-|
|----------------------------------------------------------------------------|
|----------------------------------------------------------------------------|
|----------------------------------------------------------------------------|


(6:01)
     (1/2)         (1/2)   (1/2)
|-----b17r----------b17r----b17r---------------------------------------------|
|----------------------------------------7-/17-16-14----------(1.5 step vibr)|
|----------------------------------------------------17-16-15-14~~~~~~~~~\1--|
|----------------------------------------------------------------------------|
|----------------------------------------------------------------------------|
|----------------------------------------------------------------------------|


|---18----------------14-15-18-14\12--------12~~~--------------(1.5 step-----|
|-------15-\14-17-16------------------14p12--------14\12------------vibrato)-|
|--------------------------------------------------------14p11-14~~~~~~~~~~--|
|----------------------------------------------------------------------------|
|----------------------------------------------------------------------------|
|----------------------------------------------------------------------------|

(6:13)
|----------------------------------------------------------------------------|
|--------------------------------------------------6-7p6-7p6-----------------|
|-------------------------------------------6-7-8-9-----9---9-8-7-6-7-6------|
|-11-11-11--------------------------7-8-9-10-----------------------9---9-8p7-|
|--9--9--9-----------------7-8-9-10------------------------------------------|
|--9--9--9--9\5---7---8--9---------------------------------------------------|

         * these notes may not be in the recording but make it sound fuller
|----------------------------------------------------------------------------|
|--------------------------------------------------------------------/17*15*-|
|----------------------------------------11--------------------------/16-14~~|
|-6---6-7-6h7p6---6-7--9/14-11-14~~~~~------(1 step vibr)--------------------|
|---9-----------9---------------------------14~~~~~12----14-12---------------|
|-----------------------------------------------------14-------14~~~~--------|


(6:23)
|-----------(1 step)------------------------/17--16~~~~17--------------------|
|-14-15-17-17b--r---b--r--(19)r--(19)~~\------------------14\12----------12--|
|-----------------------------------------------------------------14~~~~~----|
|----------------------------------------------------------------------------|
|----------------------------------------------------------------------------|
|----------------------------------------------------------------------------|
                         

|---------------------------------------------------17----17-16-15-14----14--|
|-12/17~\15-15-15-\14-14\10~10~12-------10/15-14h15----15-------------17-----|
|--------------------------------11~~~~--------------------------------------|
|----------------------------------------------------------------------------|
|----------------------------------------------------------------------------|
|----------------------------------------------------------------------------|

(6:36)
|-14----------------------------------14-------14--------------------------14|
|----17-16-15-14----14h15-14~~~~\--------14-17^---17-14---19p14h19p14--------|
|----------------16------------------------------------16b------------16h18--|
|------------------------------(1-1/2 st)----------------(1stp)--------------|
|--------------------------------16b-----------------------------------------|
|--------------------------------16b-----------------------------------------|




|-----14-----14--------------------------------------------------------------|
|----------------------------------------------------------------------------|
|16h18--16h18--16b-r-b-slow release-(b19)r(b19)r(b17)r-p14p---14h16-14~~~~~\-|
|----------------(1stp)-------------------------------16---------------------|
|----------------------------------------------------------------------------|
|----------------------------------------------------------------------------|

(6:44)
|--------------------12-----12--11--10-9-------------------------------------|
|---9----------9h10------10--------------12-11-10-9----10-9---------------14/|
|---11b---------------------------------------------11------11-9-------------|
|----(1step)-----------------------------------------------------12----------|
|-------------------------------------------------------------------12-12----|
|----------------------------------------------------------------------------|

|-------------------------------------------------------17x---21p17x-21p17---|
|/19-----------20brb----r---18~~~~~~~-(19)r--(19)r-b-r-----------------------|
|--------------(1step)-----------------------------(1step)-------------------|
|----------------------------------------------------------------------------|
|----------------------------------------------------------------------------|
|----------------------------------------------------------------------------|

(6:53)
|----------------------------------------------------------------------------|
|-21-19-------------------------------------------------(1stp)---------------|
|-------18\16--18--17--16--b--r--b--r------16b-(18)----16br------------------|
|------------------------(1stp)-(1stp)-19--------------------19-19b----------|
|-----------------------------------------------------------------(1stp)-----|
|----------------------------------------------------------------------------|


|----------------------------------------------------------------------------|
|--------17-17---------------------------------------------------------------|
|-----16-------18-16-18-16---------------------------------------------------|
|-19-----------------------19p16-----16-19-16-16--------16-------------------|
|------------------------------------------------19p16-----16-19-16\14-------|
|----------------------------------------------------------------------17-14~|


(7:00)            A.H.
|-------------17------------------17------14---------------------------------|
|----gliss--x17x------------------------------14--17------(1stp)------(1stp)-|
|-----pick-x16x---16b~~~~~~~~~~~~----16b-------------16b-16br-p14----14b-----|
|---------------(1stp)---------------(1stp)----------(1/2)--------16---------|
|----------------------------------------------------------------------------|
|~~~\2-----------------------------------------------------------------------|
                  A.H. applied in direct center of fretted string


|-14---------------14---------------14---------------14------17--------------|
|-----14--17-----------14--17-----------14--17-----------14------16b---------|
|-------------16b--------------16b--------------16b---------------(1/2st)----|
|------------(1stp)-----------(1stp)-----------(1stp)------------------------|
|----------------------------------------------------------------------------|
|----------------------------------------------------------------------------|


|-------------------------------------------------------|
|----------16---14--------------------------------------|
|--------------------16b--16-p14------14~~~~~~~~~~~~~\--|
|--------------------(1stp)-------16--------------------|
|-------------------------------------------------------|
|-------------------------------------------------------|


(7:11)
|-----------------------------------------15h16------------15------b15(16)-r-|
|--------------------------------------19----------19------------------------|
|-------------------------------16-h19---------------------------------------|
|--------------16--18----16-h18----------------------------------------------|
|-------16-h17--------16-----------------------------------------------------|
|-14/16----------------------------------------------------------------------|


(7:14)
|--b-(16)~~~~~~~-16--16--16-16~~~~~---16p14---19p14-----------------14h16p14-|
|------/----------------------------/---------------17~~~~~~~14h17-----------|
|-----/----------------------------/-----------------------------------------|
|----/----------------------------/------------------------------------------|
|----keep bent             until here----------------------------------------|
|----------------------------------------------------------------------------|


(7:17)
|----------------------17---------14----------16p12----12\9-12-9-------------|
|-17-14\12-17p14p12h14---14p12h14----14p12h14-------14-----------11-14-13slow|
|----------------------------------------------------------------------------|
|----------------------------------------------------------------------------|
|----------------------------------------------------------------------------|
|----------------------------------------------------------------------------|


(7:20)
|----------------------------------------------------------------------------|
|bend------(14)------------13slow bend-r---14-p13p12----12-------------------|
|(1/2stp)--------14p13-11------(1/2stp)--------------14----14p11----14p11----|
|----------------------------------------------------------------14-------14-|
|----------------------------------------------------------------------------|
|----------------------------------------------------------------------------|


(7:22)
|----------------------------------------------------------------------------|
|------------------------------------------------16b-r-------14--16p14-------|
|------------------------------------------------16b-r-------14--16p14-14----|
|-------------------------------------------------(1/2stp)-------------16----|
|-15p14-12------------12/14\9------------------------------------------------|
|----------14~~~~~~~~--------------------------------------------------------|

(7:26)
|----------------------------------------------------------------------------|
|----------------------------------------------------------------------------|
|-----13--14--13~~-----------------------------------------------------------|
|-----14--16--14~~--------14-----------16------------------------------------|
|-------------------------16-----16----16------------------12h13p12----------|
|--------------------------------------14h15-14------14h15----------14-13h14-|

(7:30)
|----------------------------------------------------------------------------|
|----------------------------------------------------------------------------|
|----------------------------------------------------------------------------|
|---------------------------------15h16p15----15h16---18x---19p18-19p18--16--|
|-12h13p12----------12-/15-15h16-----------16--------------------------------|
|----------14-13h14----------------------------------------------------------|



|---------------------------------------------------------------|
|--------17-19\17-----------------------------------------------|
|-----18----------18--------------------------------------------|
|-h19----------------19-16-15-----------------------------------|
|-----------------------------19-17---19-17p16----17~~~~~~~~~~\-|
|---------------------------------------------------------------|

(7:35)
|-------------------------------------------------------------------14-17-16-|
|----------------------------------------------(1stp)------------15----------|
|-----------------------------------11---------14b-r----------14-------------|
|---------------------------12-----------------------------16----------------|
|--------------------12-p9------12------12-/17----------17-------------------|
|-1/10-h12--10-p9-10---------------------------------------------------------|


|---------14-16-19---------14-------------14-------15--------------12h13h14--|
|------17---------------------17-14\12h14----14p12----14b--r--b--r-----------|
|----------------------------------------------------------------------------|
|----------------------------------------------------------------------------|
|----------------------------------------------------------------------------|
|----------------------------------------------------------------------------|


|-p13p12--------12-----------------------------------------------------------|
|---------15-14----15-14p12----14p13p12----12--------------------------------|
|--------------------------------------14------14x----13x-----12x-----10x----|
|----------------------------------------------------------------------------|
|----------------------------------------------------------------------------|
|----------------------------------------------------------------------------|


(7:44)
|----------------------------------------------------------------------------|
|----------------------------------------------13----------------------------|
|-12---b----r----b----r----b----r----p10----------12b-12--10---12---10-b-r---|
|----(1stp)------------------------------12-----------------12------------12-|
|----------------------------------------------------------------------------|
|----------------------------------------------------------------------------|


|----------------------------|
|----------------------------|
|---------(1/2stp vibr)------|
|-10------11~~~~~~~~~~~~~~\--|
|---12-----------------------|
|------10--------------------|  


(7:47)
|----------------------------------------------------------------------------|
|----------------------------------------------------------------------------|
|--------------(1/4)----(1/2)----------------------------(1/2)---------------|
|-------------7b-------9-slow bend----------------------9-slow bend----------|
|---------7------------------------------------------------------------------|
|-7--/9----------------------------------------------------------------------|


|----------------------------------------------------------------------------|
|----------------------------------------------------------------------------|
|-------(1/2)----------(1/4)----------(1/4)----------------------------------|
|-------9--b--r--p7----9b------p7-----9b--------p7-----7-h9-7\6h7p6----------|
|-------------------9-------------9----------------9-----------------9~~~----|
|----------------------------------------------------------------------------|


|---------------------------------------------------------------------|
|-------------------------------------------------------(1/2stp vibr)-|
|---------------------------------------------------------------------|
|--------------------------------------------------14-h16~~~~~~\0-----|
|-7-----7-p6------------------7-h9-/11-/12-/14-/16--------------------|
|----9--------9--7-p5-h7--h9------------------------------------------|

(7:59)
|---(1stp)-------------(1stp)-----------------------------------------13--14-|
|----b13slow release---b---(15)x-----(15)x(15)x(15)~~~~~r-----13-h15---------|
|---PM----------------------------------------------------14-----------------|
|--PM------------------------------------------------------------------------|
|-PM-------------------------------------------------------------------------|
|----------------------------------------------------------------------------|



|----------------------------------------------------------------------------|
|-15-p13--17--15--13x-15p13--------------13-h15--16x15h16p15--p13-15p13------|
|----------------------------14-p12-h14--------------------------------14h17-|
|----------------------------------------------------------------------------|
|----------------------------------------------------------------------------|
|----------------------------------------------------------------------------|


|-13-------------------------------------------------------------2nd finger--|
|---------------------------------------------------------------------\------|
|---17-p14-------17-p14------------------------------------------------15x---|
|-----------17------------18-p17-p15-------15---17/18--19---18h19x-----------|
|--------------------------------------17------------------------------------|
|----------------------------------------------------------------------------|


(8:05)
|----3rd-----------4th-------------3rd-----------2nd---1st-------------------|
|------\-------------\---------------\-------------\-----\-------------------|
|------16x-----------17x-------------16x-----------15x---14--------15--(1stp)|
|-------------------------------------------------------------17-------17b---|
|----------------------------------------------------------------------------|
|----------------------------------------------------------------------------|

    
|--------------------------------------17----14------------------------|
|----------------14-h15-p14---------------16----13-16------------------|
|-----16slow b---------------17p16p14-----------------14-13~~~~~~~~\5--|
|--r-----(1stp)--------------------------------------------------------|
|----------------------------------------------------------------------|
|----------------------------------------------------------------------|



(8:10)
|-----------17slow bend then mute it--------------------------17-p14x--------|
|--(5)/14---(1stp)-----------------------------------------------------------|
|----------------------------------------------------------------------------|
|----------------------------------------------------------------------------|
|----------------------------------------------------------------------------|
|----------------------------------------------------------------------------|


|--16-------14---------------------------------------------------------------|
|------17x------17-p14------17-p14-------------------------------------------|
|-----------------------16----------17-p16-p14----14~~~~~~~~~~~~\------------|
|----------------------------------------------16-----(1step vibrato)--------|
|----------------------------------------------------------------------------|
|----------------------------------------------------------------------------|

(8:15) 
|-------------------------------17-----18x--19x--15x--17x--14x--17x----14h17-|
|----------17----20h21p20-17-------17----------------------------------------|
|-------18-------------------------------------------------------------------|
|----19----------------------------------------------------------------------|
|-21-------------------------------------------------------------------------|
|----------------------------------------------------------------------------|


|-14----14---------14---------------14---------17slow bend ~~~~~~~~/---------|
|----17------17b------17-14-------------17-p14-----(1stp)--------------------|
|-------------(1stp)--------16-h18-------------------------------------------|
|----------------------------------------------------------------------------|
|-----------------------------------------------next guitar part actually----|
|-----------------------------------------------starts here before slide up--|


(8:20)
|-17p16p15p14-17--b17--r--(19)~~~~~~(19)~~~~~~~~~(19) slow release--17--p14--|
|----------------(1stp)------------------------------------------------------|
|----------------------------------------------------------------------------|
|----------------------------------------------------------------------------|
|----------------------------------------------------------------------------|
|----------------------------------------------------------------------------|


|-16----19p14---------19p14-16----14-----------19p14-16----14h15h16p15p14----|
|-------------17p14------------17----17-17p14-----------17----------------17-|
|----------------------------------------------------------------------------|
|----------------------------------------------------------------------------|
|----------------------------------------------------------------------------|
|----------------------------------------------------------------------------|

(8:27)
|--------17-14-------------14------------------------------------------------|
|-p14h17-------17-14\12/14----17-14\12-14--slow bend-r-p12----13slow bend-r--|
|-----------------------------------------(1-1/2 stp)------14---(1/2 stp)----|
|----------------------------------------------------------------------------|
|----------------------------------------------------------------------------|
|----------------------------------------------------------------------------|


|----------------------------------------------------------------------------|
|-slow bend-r--14--p12---14-h15-p14---p12h14p12--\10-------b10----r---b------|
|-(1/2 stp)-------------------------------------------------(1stp)----(1stp)-|
|----------------------------------------------------------/-----------------|
|---------------------------------------------------------/------------------|
|---------------------------------------------------------LOUD!--------------|


(8:32)          Wah pedal kicks in here for the remainder of solo
|-------------------------------------------------------------------14-------|
|-10-h12--14------------------------------------------------------14---17p14-|
|------------14p13-11--14p13-11---------------14--16p14----14--16b-----------|
|-------------------------------14-11-14/16-------------16-------(1stp)------|
|----------------------------------------------------------------------------|
|----------------------------------------------------------------------------|


|----17p14--------14-----------------------17-------------17-----------------|
|-----------14-17----14--17b----r---b-----(19)------------17b-r-------17b-17-|
|-----------------------/-(1stp)----------------------------(1stp)----(1stp)-|
|----------------------/-----------------------------------------------------|
|---------------------/------------------------------------------------------|
|--------------------3rd finger----------------------------------------------|



(8:37)
|----------14----------------------------------------------------------------|
|-14------------17p14h17p14h17p14----17p14-----------------------------------|
|----16h18------------------------16-------17p16p14----16---14h16-14--~~~\11-|
|---------------------------------------------------16----------------(1stp--|
|-------------------------------------------------------------------vibrato)-|
|----------------------------------------------------------------------------|


|----------14----------------------------------------------------------------|
|-------17-----14/17\14----17p14-----14\12-14p12-----12\10-12p10-------------|
|---/14--------------------------16--------------13--------------11h13--14p13|
|-------------------------------------------------------------------/--------|
|------------------------------------------------------------------/---------|
|-----------------------------------------------------------3rd finger-------|


|----------------------------------------------------------------------------|
|-------------------------------------14-17p14-17----------------------------|
|-11h13--11b---14p13--11h13h14--11/14-------------16/18-16h18p16-16b--r----b-|
|-------(1stp)-------------------------------------(1stp)--------(1stp)--(1s)|
|----------------------------------------------------------------------------|
|----------------------------------------------------------------------------|

(8:42)
|----/4th finger-------------------------------------------------------------|
|--17----17----17----17----17----17----17-------------17b----------r---------|
|-(18)--(18)r-(18)r-(18)--(18)--(18)--(18)r--16p14-----(1stp)----(1/2)-------|
|----------------------------------------------------------------------------|
|----------------------------------------------------------------------------|
|----------------------------------------------------------------------------|



|----------------------------------------------------------------------------|
|--b------r----------17--15--------------------------------------------------|
|-(1stp)-(1/2)---------------16b--16----14--------14-------------------------|
|-----------------------------(1stp)--------16--------16-16~~~~~~~~~~~~~-----|
|----------------------------------------------------------------------------|
|----------------------------------------------------------------------------|



(8:48)
final creshendo - this is probably done by two guitars but here are two ways
to play it with one guitar and it sounds fine.
Easy version....
|----------------------------------------------------------------------------|
|--------------------------18p17--18p17-----------19~~~~~\-------------------|
|-14------14--------14-----18p17--18p17--20-19-18-18~~~~~\-------------------|
|-16------16--------16-------------------------------------------------------|
|------16--------16----------------------------------------------------------|
|----------------------------------------------------------------------------|

Difficult but if you really want to hear all the notes played....
|----------------------------------------------------------------------------|
|--------------------------18p17--18p17-----------19~~~~~\-------------------|
|-14------14-----17-18-----18p17--18p17--20-19-18-18~~~~~\-------------------|
|-16------16-----16-16-------------------------------------------------------|
|------16--------15----------------------------------------------------------|
|----------------------------------------------------------------------------|


h = Hammer-On
p = Pull-Off
~ = Vibrato via fret fingers
br = Bend and release
 (1/2)
b4r = Finger on 4th fret, bend string 1/2 step, strike then release
1/2 step = 1 fret's worth of tone  
---16b--(18)-- = while fretted on 16th fret, pluck, then bend 1-step
                 up and pluck again
^bh = Bend and hold until: br = Bend-release
\ = Slide down, / = Slide up
17x = silence string immediately after pluck
A.H. = Artificial harmonic made by picking-hand thumb after pick pluck
PM = Palm muted
gliss pick = palm-muted notes
 


/
How To Set Up Higher Praise As Your Home Page
Copyright 1999, Higher Praise HigherPraise,Inc. All rights reserved. Terms of Use

Enjoy A Life Changing Experience

 
 
 
HigherPraise, Higher Praise, HigherPraise, Higher Praise, HigherPraise

Members..Sign Up. LogIn

 
 

Higher Praise Other Sites
 
 

HigherPraise.org/
Praise And Worship
www.higherpraise.org

HigherPraise.net
Christian Resources
www.higherpraise.net

HigherPraiseTube.com
Videos And Audios
www.higherpraisetube.com.


ChristianLyrics.org

Lyrics And Chrords
www.christianlyrics.org

ChristianChordsLyrics

Lyrics And Chrords
www.christianchordslyrics.com

ChristianChordLyrics

Lyrics And Chrords
www.christianchordlyrics.com

WorshipLyrics.org
10.000 Illustrations
www.worshiplyrics.org

WorshipLyrics.net
10.000 Illustrations
www.worshiplyrics.net

PraiseLyrics.com
PowerPoint Lyrics

www.praiselyrics.com

PraiseLyrics.org
PowerPoint Lyrics

www.praiselyrics.org

1GodTube.com
Chistian Videos

www1godtube..com

OneGodTube.com
Chistian Videos

www.onegodtube..com

 

/
Copyright 1999 - 2019, Higher Praise™ HigherPraise™,Inc. All rights reserved. Terms of Use