Higher Praise - Guitar Chords, Lyrics  GuitarTabs -  Praise nad Worship Music And Christian Songs

Higher Praise - Guitar Tabs, Guitar Chords, Lyrics
   Lyrics, Chords And Tabs
   Popular Lyrics Chords Tab
   Power Point Lyrics
   Praise & Worship Music
   Christian Music Videos
   15900 Videos & Audios
   Midi Files
   Worship Questions
   Christmas Chords, Lyrics
   Lyrics, Chords Tabs Rated

Sermon Outlines And Audio Sermons
   9344 Sermon Outlines
   N.T. Sermon Outlines
   O.T. Sermon Outlines
   Special Guest Outlines
   10.000 Illustrations
   Sunday School Studies
   Bible College Studies
   Greatest Preachers
   Bible Research Tools
Audio Sermons
   2895 Audio Sermons
   85 Sermon Videos
   291 Special Guests Serm

   Complete Audio Bible
Higher Praise Sunday School Teaching
   Children's NT Studies
   Children's OT Studies

   98 Children's Midis
   Gospel For Kids Movie
   Children's JESUS Film
Higher Praise Christian Video Library ,Videos
   Christian Television
   TBN TV Live
   15,000 Videos - HP Tube
   712 Youth Music Vids
  Christian Video Library
   Praise Videos #1 & #2
   85 Sermon Videos
   Prophecy Film -Videos
   JESUS Film -Video
   Childrens JESUS Film
   Gospel For Kids Movie
   Passion Of The Christ
   Noah, Sodom, Sinai, Ark
   Tsunami Videos Photos
News And Information
   Testimonies
   Submit Lyrics, Tabs, Serm
   10.000 Illustrations
   Bible College Course
   Clipart & Web Graphics
   Greatest Preachers
   Complete Talking Bible
   Christian Chat Rooms
   Links Church Resource
   HP Statement Of Faith
Download Clipart
   Audio Sermons
   Clipart & Web Graphics
   Church Administration
   Bible Study Software
   Screen Savers Software
   Verse A Day Software
   Educational Games
   Trade Center Photos

   Soft. Search Engine
Higher Praise News
   Current News
    Archived News
   Submit News
   Newsletter   Higher Praise Interact Prayer
   Prayer For All Needs
   
Submit Lyrics, Sermons
   
Contact Higher Praise
   
Advertising 
   Privacy Policy
//
He Died For You,  Click For Answer! This Is Who Jesus Is Video

'
 
0-9 A B C D E F G H I J K L M N O P Q R S T U V W X Y Z
.

//
Click For Printable...Version Of This File
 

My Glorious


by Chris Tomlin




---------------------------------------------------------------------
----------
               MY GLORIOUS - Chris Tomlin
---------------------------------------------------------------------
-----------

By:  Gary(garyhale@spu.edu)

~   - let ring out
h   - hammer on
p   - pull off
x
x   - scratching
x
/  - slide

GUITAR 1'S PARTS:
-----------------
Intro:
e|-0--------------0----------0----------------------0--------------0-
--------|
B|-0--------------0----------0----------------------0--------------0-
--------|
G|-4--------------4----------2----------------------1--------------4-
--------|
D|-2--------------2----------4----------------------2--------------2-
--------|
A|-0--------------x---------------------------------2--------------0-
--------|
E|----------------4---------------------------------0----------------
--------|
  God is bigger than the air I breath, the world we'll leave, and 
God will

Intro Cont'd:
e|----------0-------------0--------------0---------------------------
--------|
B|----------0-------------0--------------0---------------------------
--------|
G|----------4-------------2--------------1---------------------------
--------|
D|----------2-------------4--------------2---------------------------
--------|
A|----------x----------------------------2---------------------------
--------|
E|----------4----------------------------0---------------------------
--------|
  save the day, and all will say, my glorious.

Intro Cont'd:
e|-----0------------------0-----------------------0~-----------------
--------|
B|-----3------------------0-----------------------0~-----------------
--------|
G|-----2------------------6-----------------------4~-----------------
--------|
D|-----0------------------7-----------------------4~-----------------
--------|
A|-----0------------------4-----------------------2~-----------------
--------|
E|------------------------------------------------0~-----------------
--------|
  And all you ever do is change the old for new, people we believe 
that...

Chorus:  (Only play 1st chord though and let it ring out)

Break:
e|----------5~----------------------------5~-------------------------
--------|
B|----------5~----------------------------5~-------------------------
--------|
G|-------------------------------------------------------------7-7-7-
7-7-7-7-|
D|------------x--x-x-x-x-x-x-x-x------------x--x-x-x-x-x-x-x-x-7-7-7-
7-7-7-7-|
A|------------x--x-x-x-x-x-x-x-x------------x--x-x-x-x-x-x-x-x-5-5-5-
5-5-5-5-|
E|-0h2-2p0----x--x-x-x-x-x-x-x-x-0h2-2p0----x--x-x-x-x-x-x-x-x-------
--------|

Break Cont'd:
e|-------------------------------------------------------------------
--------|
B|-------------------------------------------------------------------
--------|
G|--------76--4-4-4-4-4-4-4-4---------------------------------------
--------|
D|x-x-x-x-76--4-4-4-4-4-4-4-4-x-x-x-x-x-x-x-x-----------------------
--------|
A|x-x-x-x-54--2-2-2-2-2-2-2-2-x-x-x-x-x-x-x-x-----------------------
--------|
E|x-x-x-x----------------------x-x-x-x-x-x-x-x-----------------------
--------|

Break Cont'd:
e|----------5~----------------------------5~-------------------------
--------|
B|----------5~----------------------------5~-------------------------
--------|
G|-------------------------------------------------------------7-7-7-
7-7-7-7-|
D|------------x--x-x-x-x-x-x-x-x------------x--x-x-x-x-x-x-x-x-7-7-7-
7-7-7-7-|
A|------------x--x-x-x-x-x-x-x-x------------x--x-x-x-x-x-x-x-x-5-5-5-
5-5-5-5-|
E|-0h2-2p0----x--x-x-x-x-x-x-x-x-0h2-2p0----x--x-x-x-x-x-x-x-x-------
--------|

Break Cont'd:
e|-------------------------------------------------------------------
--------|
B|-------------------------------------------------------------------
--------|
G|--------76--4-4-4-4-4-4-----4-4-4-4-4-4-4-4-----------------------
--------|
D|x-x-x-x-76--4-4-4-4-4-4-x-x-4-4-4-4-4-4-4-4-----------------------
--------|
A|x-x-x-x-54--2-2-2-2-2-2-x-x-2-2-2-2-2-2-2-2-----------------------
--------|
E|x-x-x-x------------------x-x---------------------------------------
--------|

Verse:  "The world's shaking..."  (Lots of phaser through whole 
verse)  (2x)
e|-------2------5----------------------------------------------------
--------|
B|----------3------3-------------------------------------------------
--------|
G|-------------------------------------------------------------------
--------|
D|-------------------------------------------------------------------
--------|
A|-------------------------------------------------------------------
--------|
E|-------------------------------------------------------------------
--------|

Pre Chorus:  "And all you ever do..."
e|-------------------------------------------------------------------
--------|
B|-------------------------------------------------------------------
--------|
G|--7>---6>---4>>----------------------------------------------------
--------|
D|--7>---7>---4>>----------------------------------------------------
--------|
A|--5>---4>---2>>----------------------------------------------------
--------|
E|-------------------------------------------------------------------
--------|

Chorus:  "God is bigger than..."  (2x)
e|-------------------------------------------------------------------
--------|
B|-------------------------------------------------------------------
--------|
G|-------------------------------------------------------------------
--------|
D|-7>---6>---4>---2>-------------------------------------------------
--------|
A|-7>---7>---4>---2>-------------------------------------------------
--------|
E|-5>---4>---2>---0>-------------------------------------------------
--------|

Break:
e|----------5~----------------------------5~-------------------------
--------|
B|----------5~----------------------------5~-------------------------
--------|
G|-------------------------------------------------------------4-4-4-
4-4-4-4-|
D|------------x--x-x-x-x-x-x-x-x------------x--x-x-x-x-x-x-x-x-4-4-4-
4-4-4-4-|
A|------------x--x-x-x-x-x-x-x-x------------x--x-x-x-x-x-x-x-x-2-2-2-
2-2-2-2-|
E|-0h2-2p0----x--x-x-x-x-x-x-x-x-0h2-2p0----x--x-x-x-x-x-x-x-x-------
--------|

Intro Cont'd:
e|-------------------------------------------------------------------
--------|
B|-------------------------------------------------------------------
--------|
G|4-4-4-4-4-4-4-4-4-6-6-6-6-6-6-6-6-6-6-6-6-6-6-6-6------------------
--------|
D|4-4-4-4-4-4-4-4-4-6-6-6-6-6-6-6-6-6-6-6-6-6-6-6-6------------------
--------|
A|2-2-2-2-2-2-2-2-2-4-4-4-4-4-4-4-4-4-4-4-4-4-4-4-4------------------
--------|
E|-------------------------------------------------------------------
--------|

Repeat Verse

Repeat Pre Chorus

Repeat Chorus

Interlude:  "My glorious, my glorious..."  (2x)
e|-------------------------------------------------------------------
--------|
B|-------------------------------------------------------------------
--------|
G|-7>----------------------------------------------------------------
--------|
D|-7>---2>---4>---6>-------------------------------------------------
--------|
A|-5>---2>---4>---7>-------------------------------------------------
--------|
E|------0>---2>---4>-------------------------------------------------
--------|

Bridge:  (No guitar...well, just phasing guitar)

Outro:  Repeat Interlude:  (8x)
outro:  GUITAR 2 (last 2x)
e|-5-4-2-4--5-4-2-4--5-4-2-4--5-5-5-5-5-5-5-5-7-7-7-7-7-7-7-7--------
--------|
B|-------------------------------------------------------------------
--------|
G|-------------------------------------------------------------------
--------|
D|-------------------------------------------------------------------
--------|
A|-------------------------------------------------------------------
--------|
E|-------------------------------------------------------------------
--------|

Rock out.
=====================================================================
==========

Chords NO Lyrics:
My Glorious
Chris Tomlin

Chorus:
A  E  D  E
A  E  D  E

Prechorus:
D  D/B 
E 

(repeat chorus)

Bridge:
F#m     D D-A-E
F#m     D D-A-E

Verse 1:
F#m     D D-A-E
F#m     D D-A-E

(prechorus to chorus...)

2nd Bridge:
F#m    E     F#m

Verse 2:
F#m     D D-A-E
F#m     D D-A-E

(prechorus to chorus)

Ending:
D  E  F#m  E

D  E  F#m  E    (over and over through all end lyrics)
 


/
How To Set Up Higher Praise As Your Home Page
Copyright 1999, Higher Praise HigherPraise,Inc. All rights reserved. Terms of Use

Enjoy A Life Changing Experience

 
 
 
HigherPraise, Higher Praise, HigherPraise, Higher Praise, HigherPraise

Members..Sign Up. LogIn

 
 

Higher Praise Other Sites
 
 

HigherPraise.org/
Praise And Worship
www.higherpraise.org

HigherPraise.net
Christian Resources
www.higherpraise.net

HigherPraiseTube.com
Videos And Audios
www.higherpraisetube.com.


ChristianLyrics.org

Lyrics And Chrords
www.christianlyrics.org

ChristianChordsLyrics

Lyrics And Chrords
www.christianchordslyrics.com

ChristianChordLyrics

Lyrics And Chrords
www.christianchordlyrics.com

WorshipLyrics.org
10.000 Illustrations
www.worshiplyrics.org

WorshipLyrics.net
10.000 Illustrations
www.worshiplyrics.net

PraiseLyrics.com
PowerPoint Lyrics

www.praiselyrics.com

PraiseLyrics.org
PowerPoint Lyrics

www.praiselyrics.org

1GodTube.com
Chistian Videos

www1godtube..com

OneGodTube.com
Chistian Videos

www.onegodtube..com

 

/
Copyright 1999 - 2019, Higher Praise™ HigherPraise™,Inc. All rights reserved. Terms of Use