To Find Lyric Alphabetical Category Click On The First Letter Of The Title
Artist: SAVIOUR MACHINE

JESUS CHRIST

CDTitle: SAVIOUR MACHINE
Year: 1996
                                   

A
|------------------------------------------------|
|------------3--4--------------------3--4--------|
|------5--------------5--------5--------------5--|
|---5-----------------------5--------------------|
|3--------3--------3-----3--------3--------3-----|
|------------------------------------------------|
, . . . , . . . , . . . , . . .

B
|------------------------3--3--3--3--3-----------|
|------------3--4-----------------------4--------|
|------5--------------5--------------------5-----|
|---5-----------------------------------------5--|
|3--------3--------3-----------------------------|
|------------------------------------------------|
, . . . , . . . , . . . , . . .

C
|------------------------------------------------|
|------------3--4--------------4-----------3-----|
|------5--------------3-----3-----3-----3-----3--|
|---5--------------------6-----------3-----------|
|3--------3--------3-----------------------------|
|------------------------------------------------|
, . . . , . . . , . . . , . . .

D
|------------------------------------------------|
|------------3--4--------------------------------|
|------5--------------5--------------------------|
|---5--------------------5--6--5--3--------------|
|3--------3--------3--------------------6--5--6--|
|------------------------------------------------|
, . . . , . . . , . . . , . . .

E
|------------------------------------------------|
|------------4-----------------------3-----------|
|------5--------5--------------3--------3--------|
|---5-----5--------5--------3-----3--------3-----|
|3--------------------3--1--------------------3--|
|------------------------------------------------|
|, . . . , . . . , . . . , . . . |
|------------------------------------------------|
|(play these only on second time)----------------|
|------------------------------------------------|
|5-----------------------3-----------------------|
|------------------------------------------------|
|------------------------------------------------|
, . . . , . . . , . . . , . . .

|------------------------------------------------|
|------------------------------------------------|
|------------------------------------------------|
|6--6--6--6--6--6--6--6--8--8--8--8--8--8--8--8--|
|6--6--6--6--6--6--6--6--8--8--8--8--8--8--8--8--|
|4--4--4--4--4--4--4--4--6--6--6--6--6--6--6--6--|
, . . . , . . . , . . . , . . .


Chorus

C5 G5 Eb5 Bb5
JESUS CHRIST - VENGEANCE IS MINE
C5 G5 Eb5 Bb5
JESUS CHRIST - LEAVE THEM BEHIND
C5 G5 Eb5 Bb5
JESUS CHRIST - VENGEANCE IS MINE
C5 G5 Eb5 Bb5 C#m (part A)
JESUS CHRIST - PLEASE, LEAVE THEM TO DIE


Guitar solo
|------------------------------------------------|
|------------------------------------------------|
|5-----------------7--8--6-----------5-----5--6--|
|---------------------------------------8--------|
|------------------------------------------------|
|------------------------------------------------|
, . . . , . . . , . . . , . . .

|------------------------------------------------|
|------------------------------------------------|
|5-----------------------------------------------|
|---------------------------------3--5--6--5--3--|
|------------------------3--5--6-----------------|
|------------------------------------------------|
, . . . , . . . , . . . , . . .

|------------------------------------------6--4--|
|------------------------------------3--4--------|
|------------------------------3--5--------------|
|5-----------------3--5--6-----------------------|
|------------------------------------------------|
|------------------------------------------------|
, . . . , . . . , . . . , . . .

|3-----------------------343------6--------------|
|------------------------------4-----4--3--4--3--|
|------------------------------------------------|
|------------------------------------------------|
|------------------------------------------------|
|------------------------------------------------|
, . . . , . . . , . . . , . . .

|------------------------------------------------|
|------------------------------------------------|
|5-----------------------------------------------|
|------------5-----------6-----------3-----5--6--|
|------------------------------------------------|
|------------------------------------------------|
, . . . , . . . , . . . , . . .

|------------------------------------------------|
|------------------------------------------------|
|------------------------------------------------|
|5-----------------------------3---3-5-3-5-6-5-3-|
|------------3-----------3-5-6---6---------------|
|------------------------------------------------|
, . . . , . . . , . . . , . . .

|------------------------------------3--------4--|
|---------------------3--4--6--4--6--------6-----|
|------------------5-----------------------------|
|5-----------------------------------------------|
|------------------------------------------------|
|------------------------------------------------|
, . . . , . . . , . . . , . . .

|3-------------------------------6----68---6810--|
|------------------------689---89----9-----------|
|------------------------------------------------|
|------------------------------------------------|
|------------------------------------------------|
|------------------------------------------------|
, . . . , . . . , . . . , . . .

|8\----------3-----------4-----------------------|
|------------------------------------6-----------|
|------------------------------------------------|
|------------------------------------------------|
|------------------------------------------------|
|------------------------------------------------|
, . . . , . . . , . . . , . . .

|3-----------------------------------------------|
|------------4-----------6-----------3-----4--3--|
|------------------------------------------------|
|------------------------------------------------|
|------------------------------------------------|
|------------------------------------------------|
, . . . , . . . , . . . , . . .

|------------------3-----4-----3-----------------|
|---3--4--6--4--6-----6--------------6--4--3-----|
|5-----------------------------------------------|
|------------------------------------------------|
|------------------------------------------------|
|------------------------------------------------|
, . . . , . . . , . . . , . . .

|------------------------------------------------|
|------------------------------------------------|
|5-----------------------------------------------|
|------------5-----------6-----------3-----------|
|------------------------------------------------|
|------------------------------------------------|
, . . . , . . . , . . . , . . .

|------------------------------------------------|
|------------------------------------------------|
|------------------------------------------------|
|5-----------------------3-----------------------|
|------------6-----------------------5-----6--5--|
|------------------------------------------------|
, . . . , . . . , . . . , . . .

|------------------------------------------------|
|------------------------------------------------|
|------------------------------------------------|
|---------3--5--6--5--------------5--------------|
|3--5--6-----------------3--5--6-----6-----5-----|
|------------------------------------------------|
, . . . , . . . , . . . , . . .

|------------------------------------------------|
|------------------------------------------------|
|------------------------------------------------|
|------------------------------------------------|
|3-----------------------4-----------------------|
|------------------------------------6-----------|
, . . . , . . . , . . . , . . .

|------------------------------------------------|
|------------------------------------------------|
|------------------------------------------------|
|---------------------------------3--5--6--5--3--|
|3-----------------------3--5--6-----------------|
|------------------------------------------------|
, . . . , . . . , . . . , . . .

|------------------------------------------------|
|------------------------------------------------|
|------------------------------------------------|
|5-----------------3--5--6-----------3-----------|
|------------------------------------------------|
|------------------------------------------------|
, . . . , . . . , . . . , . . .

|------------------------------------------------|
|------------------------------------------------|
|------------------------------------------------|
|5--------------------------------5--------------|
|------------------------3--5--6-----6-----5-----|
|------------------------------------------------|
, . . . , . . . , . . . , . . .

3rd verse
|------------------------------------------------|
|------------------------------------------------|
|------------------------------------------------|
|------------------------------------------------|
|3-----------------------4-----------------------|
|------------------------------------6-----------|
, . . . , . . . , . . . , . . .

|------------------------------------------------|
|------------------------------------------------|
|------------------------------------------------|
|---------------------------------5--------------|
|3-----------------------3--5--6-----6-----5-----|
|------------------------------------------------|
, . . . , . . . , . . . , . . .

|------------------------------------------------|
|------------------------------------------------|
|------------------------------------------------|
|------------------------------------------------|
|3-----------------------4-----------------------|
|------------------------------------6-----------|
, . . . , . . . , . . . , . . .

|------------------------------------------------|
|------------------------------------------------|
|------------------------------------------------|
|---------------------------------3--5--6--5--3--|
|3-----------------------3--5--6-----------------|
|------------------------------------------------|
, . . . , . . . , . . . , . . .

|------------------------------------------------|
|------------------------------------------------|
|------------------------------------------------|
|5-----------------3--5--6-----------3-----------|
|------------------------------------------------|
|------------------------------------------------|
, . . . , . . . , . . . , . . .

|------------------------------------------------|
|------------------------------------------------|
|------------------------------------------------|
|5--------------------------------5--------------|
|------------------------3--5--6-----6-----5-----|
|------------------------------------------------|
, . . . , . . . , . . . , . . .

|------------------------------------------------|
|------------------------------------------------|
|------------------------3---3-5-3-5-7-5-7-8-7-8-|
|------3---3-5-3-5-6-5-6---6---------------------|
|3-5-6---6---------------------------------------|
|------------------------------------------------|
, . . . , . . . , . . . , . . .

|-----------------------------8----8-10-8-10-11-10-8-10-8----|
|--------8----8-9-8-9-11-9-11---11------------------------11-|
|10-8-10---10------------------------------------------------|
|------------------------------------------------------------|
|------------------------------------------------------------|
|------------------------------------------------------------|


Eb5 Bb5 C5 G5
...PLEASE, LEAVE THEM TO DIE
Eb5 Bb5
BRING THEM TO LIFE
C5 G5
WITHOT HATE, WITHOUT PAIN
Eb5 Bb5
WITHOUT SUFFERING INSANE...

C5 Bb5 G#5 Bb5
...WITHOUT TORTURE OVER BELIEF
C5 Bb5
BRING US LOVE
G#5 Bb5
LET US SEE

SET US FREE



AB X3
CB CD X2
CB CD CB E
Chorus
AB CB CD CB
CB CD CB E
Chorus
Guitar solo
3rd verse
Chorus
To the end

higherpraise.com™ higherpraise.org™
Higherpraise.net™