To Find Lyric Alphabetical Category Click On The First Letter Of The Title

EYES OF GOD

Copyright: 1997 NEW TATTOO MUSIC/BMI
CDTitle: DELICATE FADE
Year: 1997
                                   Play G note twice.
Intro: 2 times through
G---------|--------
D---------|--------
A---------|0-0-----
E-1-1-111-|----3333

Verse:
G---------|--------
D---------|-------- x 7
A---------|0-0-----
E-1-1-111-|----3333

G---------|--------
D---------|--------
A---------|--------
E-1-1-111-|3-------

Chorus: 2 times through
G---------|--------|--------|--------
D---------|--------|--------|--------
A---------|5-5-555-|0-0-000-|3-3-3333
E-3-3-333-|--------|--------|--------

Verse
Chorus
Post chorus:
G---------|---------|---------|--------
D---------|---------|---------|--------
A-3------5|3-------5|3-------5|3-------
E---------|---------|---------|--------

Bridge: 9 measures no bass, then
G---------
D---------
A-3333333-
E---------

Chorus: x 2
Ending:
G---------|--------|--------|--------
D---------|--------|--------|--------
A-0-0-000-|3-3-3333|0-0-000-|3-------
E---------|--------|--------|--------
higherpraise.com™ higherpraise.org™
Higherpraise.net™