To Find Lyric Alphabetical Category Click On The First Letter Of The Title

EVERYTHING

Year: 2000
                                   
Intro:E,B,C#m,A

Verse:
E B C#m
Everything That, Everything That, Everything That,
A
Has Breathe Praise the Lord,

Chorus:
E
Praise you in the morning,
B
Praise you in the evening,
C#m A
Praise you when Iím young and when Iím old,
E
Praise you when Iím laughing,
B
Praise you when Iím grieving,
C#m A
Praise you every season of the soul,

Verse 2:
F#m E
If we (they) could see how much your worth,
F#m E
Your power, your might, your endless love,
F#m E A B
Then surely we (they) would never cease to praise you,

Lead Solo:

E|-13p-14-13p-14-13-14p-14-13---------------------------------|
B|---------------------------14-------------------------------|
G|------------------------------------------------------------|
D|------------------------------------------------------------|
A|------------------------------------------------------------|
E|------------------------------------------------------------|

E|------------------------------------------------------------|
B|-14-12-11-12-14-14-14-12-11-12-14-14-14-12-11-12-14-12-11---|
G|---------------------------------------------------------12-|
D|------------------------------------------------------------|
A|------------------------------------------------------------|
E|------------------------------------------------------------|

E|----------------------14------------------------14----------|
B|-14-12-11-14-14-12-11---14-12-11-14-14-12-11-14-------------|
G|------------------------------------------------------------|
D|------------------------------------------------------------|
A|------------------------------------------------------------|
E|------------------------------------------------------------|

Chorus 2:
E
Praise in the heavens,
B
Joining with the angels,
C#m A
Praise you forever and a day,
E
Praise on the earth now,
B
Joining with creation,
C#m A
Calling all the nations to your praise,

Order:
Verse 1
Chorus
Verse 2
Lead Solo
Verse 1
Chorus 2
Verse 2


higherpraise.com™ higherpraise.org™
Higherpraise.net™