Crazy times Tabs by Jars of clay

Higher Praise - Guitar Chords, Lyrics  GuitarTabs -  Praise nad Worship Music And Christian Songs

Higher Praise - Guitar Tabs, Guitar Chords, Lyrics
   Lyrics, Chords And Tabs
   Popular Lyrics Chords Tab
   Power Point Lyrics
   Praise & Worship Music
   Christian Music Videos
   15900 Videos & Audios
   Midi Files
   Worship Questions
   Christmas Chords, Lyrics
   Lyrics, Chords Tabs Rated

Sermon Outlines And Audio Sermons
   9344 Sermon Outlines
   N.T. Sermon Outlines
   O.T. Sermon Outlines
   Special Guest Outlines
   10.000 Illustrations
   Sunday School Studies
   Bible College Studies
   Greatest Preachers
   Bible Research Tools
Audio Sermons
   2895 Audio Sermons
   85 Sermon Videos
   291 Special Guests Serm

   Complete Audio Bible
Higher Praise Sunday School Teaching
   Children's NT Studies
   Children's OT Studies

   98 Children's Midis
   Gospel For Kids Movie
   Children's JESUS Film
Higher Praise Christian Video Library ,Videos
   Christian Television
   TBN TV Live
   15,000 Videos - HP Tube
   712 Youth Music Vids
  Christian Video Library
   Praise Videos #1 & #2
   85 Sermon Videos
   Prophecy Film -Videos
   JESUS Film -Video
   Childrens JESUS Film
   Gospel For Kids Movie
   Passion Of The Christ
   Noah, Sodom, Sinai, Ark
   Tsunami Videos Photos
News And Information
   Testimonies
   Submit Lyrics, Tabs, Serm
   10.000 Illustrations
   Bible College Course
   Clipart & Web Graphics
   Greatest Preachers
   Complete Talking Bible
   Christian Chat Rooms
   Links Church Resource
   HP Statement Of Faith
Download Clipart
   Audio Sermons
   Clipart & Web Graphics
   Church Administration
   Bible Study Software
   Screen Savers Software
   Verse A Day Software
   Educational Games
   Trade Center Photos

   Soft. Search Engine
Higher Praise News
   Current News
    Archived News
   Submit News
   Newsletter   Higher Praise Interact Prayer
   Prayer For All Needs
   
Submit Lyrics, Sermons
   
Contact Higher Praise
   
Advertising 
   Privacy Policy
//
He Died For You,  Click For Answer! This Is Who Jesus Is Video

'
 
0-9 A B C D E F G H I J K L M N O P Q R S T U V W X Y Z
.

//
Click For Printable...Version Of This File
 

Crazy times


by Jars of clay

Share |



#----------------------------------PLEASE NOTE--------------------------------#
#This file is the author's own work and represents their interpretation of the#
#song. You may only use this file for private study, scholarship, or research.#
#-----------------------------------------------------------------------------#
#-- File created with Instab - http://www.pconline.com/~smcarey/instab.html --#
#-----------------------------------------------------------------------------#

Author/Artist: Jars of Clay
Title: Crazy Times
Album: Much Afraid


I decided to make a complete tab of "Crazy Times" since there were so many



for this song.
------------------
Guitar 1: 12-string w/capo on 2nd fret
Guitar 2: Electric w/capo on 2nd fret

-----------0----0-----0----3---2----0-----3-----0----2------------------------
-----------0----0-----0----3---3----0-----3-----0----0------------------------
-----------0----2-----4----0---2----1-----0-----0----2----3-------------------
-----------2----2-----4----0---0----2-----2-----2----1----2-------------------
-----------3----0-----2----2--------2-----3-----2----2----3-------------------
---------------------------3--------0-----------0-----------------------------
 Chords  Dmaj7  B2  C#sus  AM  EM  F#M  Dadd9  F#m  C#9   D7 (w/capo, 0=2nd fret)                 

Intro:  Dmaj7  B2 (x3) C#sus

Verse 1: (use intro chord progression)

You're cold that way
And that's why you say
The things that you say
You can't attract
The things that you lack
                  AM   EM  
You're trying in vain

Chorus:
F#M   Dadd9      AM         EM    F#m  
   It seems it's always the crazy times
    Dadd9       AM          B2
You find you'll wake up and realize
F#M   Dadd9 AM             EM     B2   (fill A)- see tab below 
   It takes more than your saline eyes
               C#9
To make things right

Verse 2: (intro chord progression)

You spiral down
You've broken your crown
You don't feel like a queen
You've seen the proof
But you're still crying wolf
               AM     EM 
You'll never believe

[Chorus]

    D7
You try to climb a broken ladder

Grip the missing rungs
         F#m (w/Fill B) -see tab below
And fall down, down, down
D7
Seems sometime ago you said

This wouldn't last
                     C#sus
And now you sit here crying

Solo - see tab below (Rhythm guitar - F#M  Dadd9 AM  EM  F#m  Dadd9 AM B2 /////)

Verse 3: (Intro chord progression)

Beside your bed
You feel left for dead
                 AM      EM (Fill C)- see tab below   
You kneel in the dark...

It takes more than your saline eyes
To make things right
[Chorus]

[Outro] - play intro progression with Fill D 

Fill A - Gtr. 2 - (tab relative to capo 0=2nd fret)
--------------0-----------------------0----------------|
---------0----------0------------0----------0----0-----|
------2----2-----2----2-------2----2-----2----2--------|
-------------------------------------------------------|
--0-----------------------2----------------------------|
-------------------------------------------------------|
                                                                              
Fill B - Gtr 2 - (!tab not relative to capo; actual frets!)
--12--------12--------14--------17-----|
--15b*------15b*------17b*------20b*---|
---------------------------------------|
---------------------------------------|
---------------------------------------|
---------------------------------------|
                                                                              
Solo - Gtr.2 - (!tab not relative to capo; actual frets!)
--17----------17--------------------------------------------------------------
--21b*---x5---21b22r21---17b19r17---------------------------------------------
-----------------------------------14----------------------------14/16v-------
---------------------------------------16-14---------------14h16--------------
---------------------------------------------16p14\12--/16--------------------
------------------------------------------------------------------------------
                                                                              
-----------------------------------------|  -----------------|
--12/14--14v----14/15--15v----15h17b**---|  ----7------------|
-----------------------------------------|  ----9b11r9b11----|
-----------------------------------------|  -----------------|
-----------------------------------------|  -----------------|
-----------------------------------------|  -----------------|
                                            Fill C - !not relative!                                  

Outro - Fill D - acoustic guitar - relative to capo (0=2)
--------------------------------------------0--2--3---2---0-------------------
---5----3--5---x2-----------3---5----3--5-----------0---0---------------------
------0---------------2--4---------0------------------------------------------
-------------------5----------------------------------------------------------
------------------------------------------------------------------------------
------------------------------------------------------------------------------
                                                                              

------------------------------------2----|  Tab explaination:
----3--0-----3-------------------0-------|  b= bend 
----------2-----0-------------2----------|  r= return
--------------------4------1-------------|  v= vibrato
------------------------2----------------|  / \ = slides
-----------------------------------------|  b*= gradual bend
                                            b**= very gradual bend followed by feedback

Additional notes:  I figured this out by watching JOC's Letterman performance, so it's about 95%
correct.  Hope this helps.  Again, thanks to all who submitted previous tabs of this song.



Written by Dan Haseltine, Stephen Mason, Mark Hudson, Greg Wells
Copyright 1997 BridgeBuilding Music (BMI)/Pogostick Music (BMI)/Illegal Music (BMI)/
Beef Puppet Music (ASCAP). All rights reserved.

 


/
How To Set Up Higher Praise As Your Home Page
Copyright 1999, Higher Praise HigherPraise,Inc. All rights reserved. Terms of Use

Enjoy A Life Changing Experience

 
 
 
HigherPraise, Higher Praise, HigherPraise, Higher Praise, HigherPraise

Members..Sign Up. LogIn

 
 

Higher Praise Other Sites
 
 

HigherPraise.org/
Praise And Worship
www.higherpraise.org

HigherPraise.net
Christian Resources
www.higherpraise.net

HigherPraiseTube.com
Videos And Audios
www.higherpraisetube.com.


ChristianLyrics.org

Lyrics And Chrords
www.christianlyrics.org

ChristianChordsLyrics

Lyrics And Chrords
www.christianchordslyrics.com

ChristianChordLyrics

Lyrics And Chrords
www.christianchordlyrics.com

WorshipLyrics.org
10.000 Illustrations
www.worshiplyrics.org

WorshipLyrics.net
10.000 Illustrations
www.worshiplyrics.net

PraiseLyrics.com
PowerPoint Lyrics

www.praiselyrics.com

PraiseLyrics.org
PowerPoint Lyrics

www.praiselyrics.org

1GodTube.com
Chistian Videos

www1godtube..com

OneGodTube.com
Chistian Videos

www.onegodtube..com

 

/
Copyright 1999 - 2019, Higher Praise™ HigherPraise™,Inc. All rights reserved. Terms of Use