Higher Praise - Guitar Chords, Lyrics  GuitarTabs -  Praise nad Worship Music And Christian Songs

Higher Praise - Guitar Tabs, Guitar Chords, Lyrics
   Lyrics, Chords And Tabs
   Popular Lyrics Chords Tab
   Power Point Lyrics
   Praise & Worship Music
   Christian Music Videos
   15900 Videos & Audios
   Midi Files
   Worship Questions
   Christmas Chords, Lyrics
   Lyrics, Chords Tabs Rated

Sermon Outlines And Audio Sermons
   9344 Sermon Outlines
   N.T. Sermon Outlines
   O.T. Sermon Outlines
   Special Guest Outlines
   10.000 Illustrations
   Sunday School Studies
   Bible College Studies
   Greatest Preachers
   Bible Research Tools
Audio Sermons
   2895 Audio Sermons
   85 Sermon Videos
   291 Special Guests Serm

   Complete Audio Bible
Higher Praise Sunday School Teaching
   Children's NT Studies
   Children's OT Studies

   98 Children's Midis
   Gospel For Kids Movie
   Children's JESUS Film
Higher Praise Christian Video Library ,Videos
   Christian Television
   TBN TV Live
   15,000 Videos - HP Tube
   712 Youth Music Vids
  Christian Video Library
   Praise Videos #1 & #2
   85 Sermon Videos
   Prophecy Film -Videos
   JESUS Film -Video
   Childrens JESUS Film
   Gospel For Kids Movie
   Passion Of The Christ
   Noah, Sodom, Sinai, Ark
   Tsunami Videos Photos
News And Information
   Testimonies
   Submit Lyrics, Tabs, Serm
   10.000 Illustrations
   Bible College Course
   Clipart & Web Graphics
   Greatest Preachers
   Complete Talking Bible
   Christian Chat Rooms
   Links Church Resource
   HP Statement Of Faith
Download Clipart
   Audio Sermons
   Clipart & Web Graphics
   Church Administration
   Bible Study Software
   Screen Savers Software
   Verse A Day Software
   Educational Games
   Trade Center Photos

   Soft. Search Engine
Higher Praise News
   Current News
    Archived News
   Submit News
   Newsletter   Higher Praise Interact Prayer
   Prayer For All Needs
   
Submit Lyrics, Sermons
   
Contact Higher Praise
   
Advertising 
   Privacy Policy
//
He Died For You,  Click For Answer! This Is Who Jesus Is Video

'
 
0-9 A B C D E F G H I J K L M N O P Q R S T U V W X Y Z
.

//
Click For Printable...Version Of This File
 

Heaven


by Delirious




Artist: Deliriou5?
Title: Heaven
Album: Mezzamorphis
c1999 Furious?/Sparrow music


This a note-for-note tab for a somewhat complicated song.  Hopefully
this will all make sense...  

Intro:                         *=when muting, run up low E string hitting
                                as many harmonics as possible.  
G------------------------||    G---------------------------|| Play until
D------------------------||4x  D-----------x--x--x--x--x---|| C in verse
A------------------------||    A-----------x--x--x--x--x---||
E--0--0--0---------------||    E--0--0--0--x--x--x--x--x---||
   1  &  2  &  3  &  4  &         1  &  2  &  3  &  4  &

Verse 1: electric gtr chords in ()
Em(E5)
I walked down roads where the devils been

Where the kids have seen things they should have never seen
          C(C5)
And the ancient stone knows the deeper tale
        A/C#(C#5)
About a bloody game they call the holy war

Pre-Chorus Riff:                  "That's where I wanna be..."
E--------10----------5----------3-----
B-----8-----------3----------1--------  (2x first verse, 1x second)
G--9-----------4----------2-----------
   Em7         Bm7        Am7

1st Chorus: (**see note on keyboard octaves at bottom of tab**)
Em   D/F# G
He - ea - ven
      Em  D/F# G
Is my ho - o - ome
             C    D   Em  (bass & elec gtr go to F#)  
And there'll be - e - e no shame

Elec. gtr chorus fill:
	In the last line of the chorus, the elec gtr plays octaves instead of the
actual chords.  In the first chorus it goes only to F#, but in later choruses,
it goes all the way up to G.  Here's the octave positions:
B----------------------------------|
G---5-----7-----9-----11-----12----| Listen for exact timing.
D---x-----x-----x-----x-------x----|
A---3-----5-----7-----9------10----|
E----------------------------------|
    C     D    Em    D/F#     G

Verse 2: (play intro riff) 
Em(E5)
I walked down roads where the angels been

where the kids have seen things that we never have seen
        C(C5)
And the ancient stone knows the deeper tale
        A/C#(C#5)
About a bloody king who won the holy war  

Pre-chorus riff 1x

2nd Chorus: (**see note on keyboard octaves at bottom of tab**)
G    G/A  G/B
He - ea - ven
      Em  D/F# G
Is my ho - o - ome
             C    D   Em  D/F#            G    C  C-G/B-G/A  G  C-G/B-G/A
And there'll be - e - e       no shame to bear 
G    G/A  G/B
He - ea - ven
      Em  D/F# G
Is my ho - o - ome
             C    D   Em  D/F#           C  A/C#  D  B/Eb
And there'll be - e - e        no refugees - - - -

Bridge(solo):
	The bridge has a total of three guitars in it.  The main rhythm guitar on the
left side of the mix and is tabbed below.  There is another rhythm guitar on the 
right side of the mix, but is just playing open voicing of the chords with slight
distortion.  The third guitar in the center is playing the actual lead part.

Main Rhythm gtr(left side of mix): ()=optional notes to emulate the 2nd rhythm gtr
--------------------------------------------------|
--------------------------------------------------|
-----9---7-9-7-9--9-7-9---------------------------|
-----9---7-9-7-9--9-7-9----7--7---5-7-5---7-5-7---|
---------------------------7--7---5-7-5---7-5-7---|
--0-----------------------------------------------|
  Em                    Am
-------------------------(0)--------(0)-----------|
-------------------------(0)--------(0)-----------|
-----9---7-9-7-9--9-7-9---5----------7------------|
-----9---7-9-7-9--9-7-9---5----------7------------|
--------------------------3----------5------------|
--0-----------------------------------------------|
  Em                      C          D
--------------------------------------------------|
--------------------------------------------------|
-----9---7-9-7-9--9-7-9---------------------------|
-----9---7-9-7-9--9-7-9----7--7---5-7-5---7-8-7---|
---------------------------7--7---5-7-5---7-8-7---|
--0-----------------------------------------------|
  Em                    Am
--------------------------(0)---------(0)---------|
--------------------------(0)---------(1)---------|
-----9---7-9-7-9--9-7-9----5-----------2----------|
-----9---7-9-7-9--9-7-9----5-----------2----------|
---------------------------3-----------0----------|
--0-----------------------------------------------|
  Em                       C           Am

3rd guitar(actual solo):
	Play a gradual E octave bend through the first 3 bars of the bridge,
then slide down and play a lower gradual bend during the last bar, adding random 
pinch harmonics.  Finish with a pick slide on the D string.
--12----------||-------|----------||-----------------|
--15b-b-b17---||--15\--|----------||-----------------|
--------------||-------|--5b-b7---||-----------------|
--------------||-------|----------||--x~~~~~~~~~~~~--|
gradual octave bend    Play during last bar (use pinch harmonics)

Chorus (in between choruses, elec. gtr plays quick G-A-B octave run)
End on: C  A/C# D

-----------------------------------------
Note on Keyboard Chorus Octaves:
	The keyboard is playing the following octaves over the chorus chords.
G    A    B
He - ea - ven
      G    A   B
Is my ho - o - ome
             C    D   E F#        (G)   
And there'll be - e - e   no shame
------------------------------------------




 


/
How To Set Up Higher Praise As Your Home Page
Copyright 1999, Higher Praise HigherPraise,Inc. All rights reserved. Terms of Use

Enjoy A Life Changing Experience

 
 
 
HigherPraise, Higher Praise, HigherPraise, Higher Praise, HigherPraise

Members..Sign Up. LogIn

 
 

Higher Praise Other Sites
 
 

HigherPraise.org/
Praise And Worship
www.higherpraise.org

HigherPraise.net
Christian Resources
www.higherpraise.net

HigherPraiseTube.com
Videos And Audios
www.higherpraisetube.com.


ChristianLyrics.org

Lyrics And Chrords
www.christianlyrics.org

ChristianChordsLyrics

Lyrics And Chrords
www.christianchordslyrics.com

ChristianChordLyrics

Lyrics And Chrords
www.christianchordlyrics.com

WorshipLyrics.org
10.000 Illustrations
www.worshiplyrics.org

WorshipLyrics.net
10.000 Illustrations
www.worshiplyrics.net

PraiseLyrics.com
PowerPoint Lyrics

www.praiselyrics.com

PraiseLyrics.org
PowerPoint Lyrics

www.praiselyrics.org

1GodTube.com
Chistian Videos

www1godtube..com

OneGodTube.com
Chistian Videos

www.onegodtube..com

 

/
Copyright 1999 - 2019, Higher Praise™ HigherPraise™,Inc. All rights reserved. Terms of Use