New body Tabs by Audio adrenaline

Higher Praise - Guitar Chords, Lyrics  GuitarTabs -  Praise nad Worship Music And Christian Songs

Higher Praise - Guitar Tabs, Guitar Chords, Lyrics
   Lyrics, Chords And Tabs
   Popular Lyrics Chords Tab
   Power Point Lyrics
   Praise & Worship Music
   Christian Music Videos
   15900 Videos & Audios
   Midi Files
   Worship Questions
   Christmas Chords, Lyrics
   Lyrics, Chords Tabs Rated

Sermon Outlines And Audio Sermons
   9344 Sermon Outlines
   N.T. Sermon Outlines
   O.T. Sermon Outlines
   Special Guest Outlines
   10.000 Illustrations
   Sunday School Studies
   Bible College Studies
   Greatest Preachers
   Bible Research Tools
Audio Sermons
   2895 Audio Sermons
   85 Sermon Videos
   291 Special Guests Serm

   Complete Audio Bible
Higher Praise Sunday School Teaching
   Children's NT Studies
   Children's OT Studies

   98 Children's Midis
   Gospel For Kids Movie
   Children's JESUS Film
Higher Praise Christian Video Library ,Videos
   Christian Television
   TBN TV Live
   15,000 Videos - HP Tube
   712 Youth Music Vids
  Christian Video Library
   Praise Videos #1 & #2
   85 Sermon Videos
   Prophecy Film -Videos
   JESUS Film -Video
   Childrens JESUS Film
   Gospel For Kids Movie
   Passion Of The Christ
   Noah, Sodom, Sinai, Ark
   Tsunami Videos Photos
News And Information
   Testimonies
   Submit Lyrics, Tabs, Serm
   10.000 Illustrations
   Bible College Course
   Clipart & Web Graphics
   Greatest Preachers
   Complete Talking Bible
   Christian Chat Rooms
   Links Church Resource
   HP Statement Of Faith
Download Clipart
   Audio Sermons
   Clipart & Web Graphics
   Church Administration
   Bible Study Software
   Screen Savers Software
   Verse A Day Software
   Educational Games
   Trade Center Photos

   Soft. Search Engine
Higher Praise News
   Current News
    Archived News
   Submit News
   Newsletter   Higher Praise Interact Prayer
   Prayer For All Needs
   
Submit Lyrics, Sermons
   
Contact Higher Praise
   
Advertising 
   Privacy Policy
//
He Died For You,  Click For Answer! This Is Who Jesus Is Video

'
 
0-9 A B C D E F G H I J K L M N O P Q R S T U V W X Y Z
.

//
Click For Printable...Version Of This File
 

New body


by Audio adrenaline

Share |



#----------------------------------PLEASE NOTE--------------------------------#
#This file is the author's own work and represents their interpretation of the#
#song. You may only use this file for private study, scholarship, or research.#
#-----------------------------------------------------------------------------#
#-- File created with Instab - http://www.pconline.com/~smcarey/instab.html --#
#-----------------------------------------------------------------------------#

Author/Artist: Audio Adrenaline
Title: New Body
Album: Some Kind of Zombie


**This song is in Dropped-D tuning, low to high (D,A,D,G,B,E)**

Main riff:
E------------------------------------------|
B------------------------------------------|
G------------------------------------------|
D-----------------7---------------7----5---|
A-----------------5---------------5p0--3---|
D---0---5h6--6h7---------0---5h6-----------|
                                                                              
Pre-Chorus: This is a composite riff (2 seperate guitar parts) 
  **play staccato notes
  Right side of mix: clean guitar w/auto-wah 
||-------------------------------------||
||-------7-----------------------------||
||---7-------5---5---------------------||
||-------------------4---5---4---2p0---||
||-------------------------------------||
||-------------------------------------||
||                                     ||                                          
||Left Side of mix: guitar w/dist      ||
||-------------------------------------||
||-------7-----------------------------||
||---------------5---4---5---4----0----||
||---0-------7-------------------------||
||-------------------------------------||
||-------------------------------------||
                                                                              
Guitar & Keyboard solo: the keyboard takes over in the second part, but I arranged
  it for guitar anyway.
Play this 2x:            then play this... 
------------------------|-----------------------------------------------------
------------------------|-----------------------------------------------------
-----11----11----12-11--|-----11----11----11-12-14b16r14--12-11-12-11-14-11---
--12----12----12--------|--12----12----12-------------------------------------
------------------------|-----------------------------------------------------
------------------------|-----------------------------------------------------
                                                                              
Play this 2x:            then play this...
-----------------12-----|------------------------------------12---------------
-----15----15-------15--|-----15----15-----------------12h13----15------------
--12----12----12--------|--12----12----12--11h12-12h14------------------------
------------------------|-----------------------------------------------------
------------------------|-----------------------------------------------------
------------------------|-----------------------------------------------------
______________________________________________________________________________                                                                 

Chords:  D(x577xx)  B(x244xx)  G(555xxx)  A#(x133xx)  C(x355xx)

Intro: Keyboard & bass 

Verses: Play the main riff after each line
Pre-Chorus: play the composite riff
1st Chorus: 
D //// B /// G /// A# / /     C / //
You...and I...,    want a new body
You...and I...,    want to    fly

verse 2
pre-chorus
2nd Chorus: 
D //// B /// G /// A# / /     C / //
You...and I...,    want a new body
You...and I...,    want a     fly     *(play octaves of the chords below)   
You...and I...,    can get a new body   i.e. B(x2x4xx)  A#(x1x3xx)   
D //// B /// G /// A# / /      C // *B /  *A# /     *B /  *A# / - feedback starts (pitch:D)
You...and I...,    will never, never die
*B /             *A# /           
  Never gonna die, I'm gonna fly
*B /             *A# /    (cool flanged bass riff comes in)
  Never gonna die, I'm gonna fly  

solo (see above)
Chorus 
Main riff
Pre-chorus, then fade with cool keyboard sounds

c1997 Up In The Mix Music/No Shoes, No Shirt, No Music

 


/
How To Set Up Higher Praise As Your Home Page
Copyright 1999, Higher Praise HigherPraise,Inc. All rights reserved. Terms of Use

Enjoy A Life Changing Experience

 
 
 
HigherPraise, Higher Praise, HigherPraise, Higher Praise, HigherPraise

Members..Sign Up. LogIn

 
 

Higher Praise Other Sites
 
 

HigherPraise.org/
Praise And Worship
www.higherpraise.org

HigherPraise.net
Christian Resources
www.higherpraise.net

HigherPraiseTube.com
Videos And Audios
www.higherpraisetube.com.


ChristianLyrics.org

Lyrics And Chrords
www.christianlyrics.org

ChristianChordsLyrics

Lyrics And Chrords
www.christianchordslyrics.com

ChristianChordLyrics

Lyrics And Chrords
www.christianchordlyrics.com

WorshipLyrics.org
10.000 Illustrations
www.worshiplyrics.org

WorshipLyrics.net
10.000 Illustrations
www.worshiplyrics.net

PraiseLyrics.com
PowerPoint Lyrics

www.praiselyrics.com

PraiseLyrics.org
PowerPoint Lyrics

www.praiselyrics.org

1GodTube.com
Chistian Videos

www1godtube..com

OneGodTube.com
Chistian Videos

www.onegodtube..com

 

/
Copyright 1999 - 2019, Higher Praise™ HigherPraise™,Inc. All rights reserved. Terms of Use