Higher Praise - Guitar Chords, Lyrics  GuitarTabs -  Praise nad Worship Music And Christian Songs

Higher Praise - Guitar Tabs, Guitar Chords, Lyrics
   Lyrics, Chords And Tabs
   Popular Lyrics Chords Tab
   Power Point Lyrics
   Praise & Worship Music
   Christian Music Videos
   15900 Videos & Audios
   Midi Files
   Worship Questions
   Christmas Chords, Lyrics
   Lyrics, Chords Tabs Rated

Sermon Outlines And Audio Sermons
   9344 Sermon Outlines
   N.T. Sermon Outlines
   O.T. Sermon Outlines
   Special Guest Outlines
   10.000 Illustrations
   Sunday School Studies
   Bible College Studies
   Greatest Preachers
   Bible Research Tools
Audio Sermons
   2895 Audio Sermons
   85 Sermon Videos
   291 Special Guests Serm

   Complete Audio Bible
Higher Praise Sunday School Teaching
   Children's NT Studies
   Children's OT Studies

   98 Children's Midis
   Gospel For Kids Movie
   Children's JESUS Film
Higher Praise Christian Video Library ,Videos
   Christian Television
   TBN TV Live
   15,000 Videos - HP Tube
   712 Youth Music Vids
  Christian Video Library
   Praise Videos #1 & #2
   85 Sermon Videos
   Prophecy Film -Videos
   JESUS Film -Video
   Childrens JESUS Film
   Gospel For Kids Movie
   Passion Of The Christ
   Noah, Sodom, Sinai, Ark
   Tsunami Videos Photos
News And Information
   Testimonies
   Submit Lyrics, Tabs, Serm
   10.000 Illustrations
   Bible College Course
   Clipart & Web Graphics
   Greatest Preachers
   Complete Talking Bible
   Christian Chat Rooms
   Links Church Resource
   HP Statement Of Faith
Download Clipart
   Audio Sermons
   Clipart & Web Graphics
   Church Administration
   Bible Study Software
   Screen Savers Software
   Verse A Day Software
   Educational Games
   Trade Center Photos

   Soft. Search Engine
Higher Praise News
   Current News
    Archived News
   Submit News
   Newsletter   Higher Praise Interact Prayer
   Prayer For All Needs
   
Submit Lyrics, Sermons
   
Contact Higher Praise
   
Advertising 
   Privacy Policy
//
He Died For You,  Click For Answer! This Is Who Jesus Is Video

'
 
0-9 A B C D E F G H I J K L M N O P Q R S T U V W X Y Z
.

//
Click For Printable...Version Of This File
 

Hands and Feet


by Audio Adrenaline




  Song: Hands and Feet
  By: ?????
  Album:Aquire the Fire Praise CD
  Tab by:annointed
    


     Intro:
  
   --slightly p.m.these notes---------------------------------------
 e------------------2---2---2---2---0---0---0---0---2---2---2---2---
 B--3---3---3---3-----3---3---3---3---3---3---3---3---3---3---3---3-intro
 G----2---2---2---2-------------------------------------------------part 1
 D------------------------------------------------------------------
 A------------------------------------------------------------------
 E------------------------------------------------------------------


   let ring---------------------| sl. -riff 1----------------------|
 e----7-------------------------|----------------------------------|
 B----8------------------3-2----|----------------------------------|
 G------9--------------------2--|----------------------------------|intro
 D--------9---------------------|--------4h5-4-5-2---4h5-4-5-7-----|part 2
 A----------7----------0--------|------0-----------0---------------|
 E--0---------------------------|-12\------------------------------|



    Verse:

   this part     |
   play 3x's-----|
 e---------------|----2---------|----------------|-----------------|
 B---------------|----3---------|----3-----------|----3------------|
 G------------0--|----2-----0---|----2-----------|----2------------|
 D--4---------0--|----0-----0---|----2-------2---|----2------------|
 A--2--2-3-5-----|--------------|----0-------2---|----0------------|
 E---------------|----------3---|------------0---|-----------------|



    Chorus:

  (For the chorus, play intro part 1 two times before playing part two.)
 or you can play it with the chords below.
                  D                        Asus
I want to be your hands ,I want to be your feet
     Em                    G                   }play 2x's
I'll go where you send me, go where you send me
         Em            A
and I'll try yeah I'll try.(if you play this as the intro this is where it stops.)
             D      D     C      G
to touch the world, like you've touched my life
         Em      Asus           D    }or play the Em & Asus as in intro pt. 2
and I'll find my way to be your hands.
 
 Play riff 1 before going back to verse.
                  
This is pretty close to the recording. I tabbed this version because it
rocks  more than Audio Adrenaline's.
 


/
How To Set Up Higher Praise As Your Home Page
Copyright 1999, Higher Praise HigherPraise,Inc. All rights reserved. Terms of Use

Enjoy A Life Changing Experience

 
 
 
HigherPraise, Higher Praise, HigherPraise, Higher Praise, HigherPraise

Members..Sign Up. LogIn

 
 

Higher Praise Other Sites
 
 

HigherPraise.org/
Praise And Worship
www.higherpraise.org

HigherPraise.net
Christian Resources
www.higherpraise.net

HigherPraiseTube.com
Videos And Audios
www.higherpraisetube.com.


ChristianLyrics.org

Lyrics And Chrords
www.christianlyrics.org

ChristianChordsLyrics

Lyrics And Chrords
www.christianchordslyrics.com

ChristianChordLyrics

Lyrics And Chrords
www.christianchordlyrics.com

WorshipLyrics.org
10.000 Illustrations
www.worshiplyrics.org

WorshipLyrics.net
10.000 Illustrations
www.worshiplyrics.net

PraiseLyrics.com
PowerPoint Lyrics

www.praiselyrics.com

PraiseLyrics.org
PowerPoint Lyrics

www.praiselyrics.org

1GodTube.com
Chistian Videos

www1godtube..com

OneGodTube.com
Chistian Videos

www.onegodtube..com

 

/
Copyright 1999 - 2019, Higher Praise™ HigherPraise™,Inc. All rights reserved. Terms of Use