Is Forevor Enough Tabs by Hawk Nelson

Higher Praise - Guitar Chords, Lyrics  GuitarTabs -  Praise nad Worship Music And Christian Songs

Higher Praise - Guitar Tabs, Guitar Chords, Lyrics
   Lyrics, Chords And Tabs
   Popular Lyrics Chords Tab
   Power Point Lyrics
   Praise & Worship Music
   Christian Music Videos
   15900 Videos & Audios
   Midi Files
   Worship Questions
   Christmas Chords, Lyrics
   Lyrics, Chords Tabs Rated

Sermon Outlines And Audio Sermons
   9344 Sermon Outlines
   N.T. Sermon Outlines
   O.T. Sermon Outlines
   Special Guest Outlines
   10.000 Illustrations
   Sunday School Studies
   Bible College Studies
   Greatest Preachers
   Bible Research Tools
Audio Sermons
   2895 Audio Sermons
   85 Sermon Videos
   291 Special Guests Serm

   Complete Audio Bible
Higher Praise Sunday School Teaching
   Children's NT Studies
   Children's OT Studies

   98 Children's Midis
   Gospel For Kids Movie
   Children's JESUS Film
Higher Praise Christian Video Library ,Videos
   Christian Television
   TBN TV Live
   15,000 Videos - HP Tube
   712 Youth Music Vids
  Christian Video Library
   Praise Videos #1 & #2
   85 Sermon Videos
   Prophecy Film -Videos
   JESUS Film -Video
   Childrens JESUS Film
   Gospel For Kids Movie
   Passion Of The Christ
   Noah, Sodom, Sinai, Ark
   Tsunami Videos Photos
News And Information
   Testimonies
   Submit Lyrics, Tabs, Serm
   10.000 Illustrations
   Bible College Course
   Clipart & Web Graphics
   Greatest Preachers
   Complete Talking Bible
   Christian Chat Rooms
   Links Church Resource
   HP Statement Of Faith
Download Clipart
   Audio Sermons
   Clipart & Web Graphics
   Church Administration
   Bible Study Software
   Screen Savers Software
   Verse A Day Software
   Educational Games
   Trade Center Photos

   Soft. Search Engine
Higher Praise News
   Current News
    Archived News
   Submit News
   Newsletter   Higher Praise Interact Prayer
   Prayer For All Needs
   
Submit Lyrics, Sermons
   
Contact Higher Praise
   
Advertising 
   Privacy Policy
//
He Died For You,  Click For Answer! This Is Who Jesus Is Video

'
 
0-9 A B C D E F G H I J K L M N O P Q R S T U V W X Y Z
.

//
Click For Printable...Version Of This File
 

Is Forevor Enough


by Hawk Nelson

Share |



Song- Is Forevor Enough
Artist- Hawk Nelson
CD- Smile It's the End of the World
copyright 2006 Tooth and Nail Records




Hey guys, this song is in an even lower tuning than drop drop c# tuning. 
It is in drop c.
 This is one of Hawk's best songs of
all time.  Please rate it, correct it, and enjoy it!  And check out my other
tab of another awesome Hawk song "The One Thing I Have Left."

*= palm muffle
b= bend
x with an h and a number under it =harmonic on whatever fret the number says

Intro:

Guitar 1

D-------------------------------------------------------------
A-------------------------------------------------------------
F-------------------------------------------------------------     2x
C--0-0000-8-8888-7-7777-5-3-2-3-0-0000-7-7777-3-3333-5-3-2-3-0
G--0-0000-8-8888-8-8888-5-3-2-3-0-0000-7-7777-3-3333-5-3-2-3-0
C--0-0000-8-8888-7-7777-5-3-2-3-0-0000-7-7777-3-3333-5-3-2-3-0

Guitar 2

D------1-0-1----1-0-1-----1-0-1-3-1-0-1-0-----1-0-1-----1-0-1-----1-0-1-3-1-0-1
A--3-3------------------------------------3-3----------------------------------
F------------3-3----------------0-------------------2-2-----------------0------
C---------------------3-3-------------------------------------3-3--------------
G------------------------------play above two times------------------------    
C-----------------------------------------------------   

Verse 1:

Guitar 1

D----------------------------------------------------------------------------
A----------------------------------------------------------------------------
F----------------------------------------------------------------------------
C--0--x-x-x--0--x-x-x-0--x-x-x-8-8-8-10-10-10-0-0-x-x-x--0-0-x-x-x--0-0-x-x-x
G--0--x-x-x--0--x-x-x-0--x-x-x-8-8-8-10-10-10-0-0-x-x-x--0-0-x-x-x--0-0-x-x-x
C--0--x-x-x--0--x-x-x-0--x-x-x-8-8-8-10-10-10-0-0-x-x-x--0-0-x-x-x--0-0-x-x-x
      h5h5h5    h5h5h5   h5h5h5                   h8h8h8     h8h8h8     h8h8h8

D----------------
A----------------
F----------------
C--3-3-3-10-10-10   play this 2x
G--3-3-3-10-10-10
C--3-3-3-10-10-10

Guitar 2 comes in the second time with this

D--5-5-5-5-3-3-3-3-1-1-1-1-0-0-0-0---------0-0-0-0-1-1-1-1-3-3-3-3
A----------------------------------3-3-3-3------------------------
F-----------------------------------------------------------------  2x
C-----------------------------------------------------------------
G-----------------------------------------------------------------
C-----------------------------------------------------------------

Pre-chorus

Guitar 1 

D------------------------------------------
A------------------------------------------
F------------------------------------------   play 2x
C--12-12-12-12-8-8-8-8-10-10-10-10-5-5-5-5-
G--12-12-12-12-8-8-8-8-10-10-10-10-5-5-5-5-
C--12-12-12-12-8-8-8-8-10-10-10-10-5-5-5-5-

His breath is taken away,

Chorus

Guitar 1 

D-----------------------------------
A-----------------------------------
F-----------------------------------
C--3----8----0-0-0-0-0-0-10----8----  play 2x
G--3 8x-8 8x-0-0---0-0---10 4x-8 4x-
C--3----8----0-0---0-0---10----8----

play intro once

play verse once

play prechorus twice.  The second time guitar two comes in with this riff.


D---------
A--5-5-3-3  play 7x
F---------      
C---------     we'll call this riff 1
G---------
C---------

play chorus

Bridge:

Guitar 1

D-------------------------------------
A-------------------------------------
F-------------------------------------   2x
C-------------------------------------
G-------------------------------------
C--0-0-0-0-8-8-8-8-10-10-10-10-5-5-5-5

the second time guitar 2 plays riff 1

play the chorus with each power chord being played three times instead of
the usuall number

then play:

D--
A--
F--
C--3----10----0----8----
G--3 8x-10 8x-0 8x-8 8x- play 2x the second time play it with this rhymexx xxx
C--3----10----0----8----

then play the intro and then the first part of the verse and you're done.

                                          Relient Nelson 


/
How To Set Up Higher Praise As Your Home Page
Copyright 1999, Higher Praise HigherPraise,Inc. All rights reserved. Terms of Use

Enjoy A Life Changing Experience

 
 
 
HigherPraise, Higher Praise, HigherPraise, Higher Praise, HigherPraise

Members..Sign Up. LogIn

 
 

Higher Praise Other Sites
 
 

HigherPraise.org/
Praise And Worship
www.higherpraise.org

HigherPraise.net
Christian Resources
www.higherpraise.net

HigherPraiseTube.com
Videos And Audios
www.higherpraisetube.com.


ChristianLyrics.org

Lyrics And Chrords
www.christianlyrics.org

ChristianChordsLyrics

Lyrics And Chrords
www.christianchordslyrics.com

ChristianChordLyrics

Lyrics And Chrords
www.christianchordlyrics.com

WorshipLyrics.org
10.000 Illustrations
www.worshiplyrics.org

WorshipLyrics.net
10.000 Illustrations
www.worshiplyrics.net

PraiseLyrics.com
PowerPoint Lyrics

www.praiselyrics.com

PraiseLyrics.org
PowerPoint Lyrics

www.praiselyrics.org

1GodTube.com
Chistian Videos

www1godtube..com

OneGodTube.com
Chistian Videos

www.onegodtube..com

 

/
Copyright 1999 - 2019, Higher Praise™ HigherPraise™,Inc. All rights reserved. Terms of Use