Burt Rutan Tabs by Kids In The Way

Higher Praise - Guitar Chords, Lyrics  GuitarTabs -  Praise nad Worship Music And Christian Songs

Higher Praise - Guitar Tabs, Guitar Chords, Lyrics
   Lyrics, Chords And Tabs
   Popular Lyrics Chords Tab
   Power Point Lyrics
   Praise & Worship Music
   Christian Music Videos
   15900 Videos & Audios
   Midi Files
   Worship Questions
   Christmas Chords, Lyrics
   Lyrics, Chords Tabs Rated

Sermon Outlines And Audio Sermons
   9344 Sermon Outlines
   N.T. Sermon Outlines
   O.T. Sermon Outlines
   Special Guest Outlines
   10.000 Illustrations
   Sunday School Studies
   Bible College Studies
   Greatest Preachers
   Bible Research Tools
Audio Sermons
   2895 Audio Sermons
   85 Sermon Videos
   291 Special Guests Serm

   Complete Audio Bible
Higher Praise Sunday School Teaching
   Children's NT Studies
   Children's OT Studies

   98 Children's Midis
   Gospel For Kids Movie
   Children's JESUS Film
Higher Praise Christian Video Library ,Videos
   Christian Television
   TBN TV Live
   15,000 Videos - HP Tube
   712 Youth Music Vids
  Christian Video Library
   Praise Videos #1 & #2
   85 Sermon Videos
   Prophecy Film -Videos
   JESUS Film -Video
   Childrens JESUS Film
   Gospel For Kids Movie
   Passion Of The Christ
   Noah, Sodom, Sinai, Ark
   Tsunami Videos Photos
News And Information
   Testimonies
   Submit Lyrics, Tabs, Serm
   10.000 Illustrations
   Bible College Course
   Clipart & Web Graphics
   Greatest Preachers
   Complete Talking Bible
   Christian Chat Rooms
   Links Church Resource
   HP Statement Of Faith
Download Clipart
   Audio Sermons
   Clipart & Web Graphics
   Church Administration
   Bible Study Software
   Screen Savers Software
   Verse A Day Software
   Educational Games
   Trade Center Photos

   Soft. Search Engine
Higher Praise News
   Current News
    Archived News
   Submit News
   Newsletter   Higher Praise Interact Prayer
   Prayer For All Needs
   
Submit Lyrics, Sermons
   
Contact Higher Praise
   
Advertising 
   Privacy Policy
//
He Died For You,  Click For Answer! This Is Who Jesus Is Video

'
 
0-9 A B C D E F G H I J K L M N O P Q R S T U V W X Y Z
.

//
Click For Printable...Version Of This File
 

Burt Rutan


by Kids In The Way

Share |



Song:Burt Rutan
Artist:Kids in the Way
Album:Apparitions of Melody
Copyright 2005 Flicker Records

There was no tab for this song, so here is the first attempt. This is my 
favourite KITW song. Tune guitars half-step down.

/=slide
bb=slightly bend back and forth

Intro/Chorus:Rhythm Guitar
e-----------------------
b-----------------------
g-----------------------
D-555-555-555-555-5555--
A-555-555-555-555-5555--
E-333-333-333-333-3333--

For the end of the Intro/Chorus, you could do this instead:
e----------
b----------
g----------
D-8-7-5-3--
A-8-7-5-3--
E-6-5-3-1--

But, it doesn't really matter. Either way sounds fine.

Intro/Chorus:Lead Guitar
e---------------------------
b---------------------------
g---------------------------
D-8-55-8-55-8-55-8-55-875---
A------------------------8--
E---------------------------

Verse 1:Rhythm Guitar
e----------------------------------------
b----------------------------------------
g----------------------------------------however many times
D----------------------------5555--------
A-55555555-44444444-33333333-3333-33-55--
E-33333333-22222222-11111111-------------
pm........ ........ ........ ....

Verse 1:Lead Guitar.These chords are hard, so good luck!
e----------------------------------
b----------------------------------
g-7-7-7-7-6-6-6-6-5-5-5-5-9-9-9-9--
D-8-8-8-8-8-8-8-8-8-8-8-8-8-8-8-8--
A-x-x-x-x-x-x-x-x-x-x-x-x-x-x-x-x--
E-6-6-6-6-6-6-6-6-6-6-6-6-6-6-6-6--
You figure out when to come in

Pre-Chorus:for these slides, just slide up from open notes
e---------------
b---------------
g---------------
D---8---3/8--7--
A-6---5--/8--7--
E--------/6--5--

Chorus

Verse 2 starts out with the hard lead chords, without the Rhythm guitar. Then
play the rhythm guitar part from Verse 1, and play this lead pattern over it:
e---10---13-10---10---12-10---10---8---8-8-8-8--
b-8----8-------8----8-------8----8---8--8-8-8---
g-----------------------------------------------
D-----------------------------------------------
A-----------------------------------------------
E-----------------------------------------------

Pre-Chorus
Chorus

Now the Bridge:
e---------------------------------------
b---------------------------------------
g---------------------------------------
D-77777777-66666666-99999999-222-22222--
A-55555555-44444444-77777777-222-22222--
E----------------------------000-00000--
  ........ ........ ........

One lead note
b-7

Bridge Part 2:Rhythm Guitar
e---------------------------------------
b---------------------------------------
g-77777777-66666666-99999999------------
D-77777777-66666666-99999999-222-22222--
A-55555555-44444444-77777777-222-22222--
E----------------------------000-00000--

Bridge Part 2:Lead Guitar
(x8=play 8 times)
e-----------------
b-9--7----7x8--9--
g-----------------
D-----------------
A-----------------
E-----------------
The first 7th fretted note on the b string is very weak and hard to hear,
but it's there

Then play pre-chorus and Chorus

And we're done! It should be mostly right.

Still Sleepwalking,
Patrick 


/
How To Set Up Higher Praise As Your Home Page
Copyright 1999, Higher Praise HigherPraise,Inc. All rights reserved. Terms of Use

Enjoy A Life Changing Experience

 
 
 
HigherPraise, Higher Praise, HigherPraise, Higher Praise, HigherPraise

Members..Sign Up. LogIn

 
 

Higher Praise Other Sites
 
 

HigherPraise.org/
Praise And Worship
www.higherpraise.org

HigherPraise.net
Christian Resources
www.higherpraise.net

HigherPraiseTube.com
Videos And Audios
www.higherpraisetube.com.


ChristianLyrics.org

Lyrics And Chrords
www.christianlyrics.org

ChristianChordsLyrics

Lyrics And Chrords
www.christianchordslyrics.com

ChristianChordLyrics

Lyrics And Chrords
www.christianchordlyrics.com

WorshipLyrics.org
10.000 Illustrations
www.worshiplyrics.org

WorshipLyrics.net
10.000 Illustrations
www.worshiplyrics.net

PraiseLyrics.com
PowerPoint Lyrics

www.praiselyrics.com

PraiseLyrics.org
PowerPoint Lyrics

www.praiselyrics.org

1GodTube.com
Chistian Videos

www1godtube..com

OneGodTube.com
Chistian Videos

www.onegodtube..com

 

/
Copyright 1999 - 2019, Higher Praise™ HigherPraise™,Inc. All rights reserved. Terms of Use