Swingset Tabs by Yellow Second

Higher Praise - Guitar Chords, Lyrics  GuitarTabs -  Praise nad Worship Music And Christian Songs

  Lyrics Guitar Chords Tabs
  Lyrics Chords Tabs By Title
  Lyrics Chords Tab By Artist
  
Popular Lyrics, Chords Tab   Power Point Lyrics
  Christmas Lyrics
  Praise & Worship Songs
  Audios, Praise & Worship
  Videos Praise & Worship
  Midis Praise & Worship
  Praise Worship Questions
  Videos Christian Songs
  Outlines & Illustrations
  9344 Sermon Outlines
  N.T. Sermon Outlines
  O.T. Sermon Outlines
  Special Guest Outlines
  10.000 Illustrations
  Free Bible College Studies
  Sunday School Studies
  Greatest Preachers Profiles
  400,000 Clipart & Graphics
  Church Resource Links
  Audio & Video Sermons
  2895 Audio Sermons
  291 Special Guest Sermons
  85 Sermon Videos
  Videos Of Great Preachers
  Complete Audio Bible
  Childrens Study & Movies
  Children's NT Lessons
  Children's OT Lessons

  98 Children's Midis
  Gospel For Kids Movie
  Children's JESUS Film
  Christian Children Videos

  TV - Movies & Videos
  Christian Television
  Passion Of The Christ
  Christian Movie Library
  Prophecy Movies & Videos
  712 Praise Worship Videos
  JESUS Film -Movie
  Childrens JESUS Movie
  Gospel For Kids Movie
  85 Sermon Videos
  Noah, Sodom, Sinai, Ark
  15,000 Videos - Songs Films
  Praise Videos #1 & #2
  Testimonies
  Tsunami Videos Photos
  TBN TV Live

  Download Songs Sermons
  Audio Praise & Worship
  Audio Sermons
  Clipart & Web Graphics
  Church Administration
  Bible Study Software
  Screen Savers Software
  Verse A Day Software
  Educational Games
  Trade Center Photos
  Christian Software Search
  Info. Clipart Preach Study
  Praise Worship Questions
  Free Bible College Course
  400,000 Clipart & Graphics
  10.000 Illustrations
  Greatest Preachers Profiles
  Complete Talking Bible
  Family Christian Chat

  Prayer For All Needs
  Our Statement Of Faith 
  News, Submit Your News
  Current News
  Archived News
  Submit News
  News Letter
/
  Interact, Prayer & Submit
  Prayer For All Needs
  
Submit Lyrics, Sermons
  
Contact Higher Praise
  
Advertising
  Privacy Policy
'
0-9 A B C D E F G H I J K L M N O P Q R S T U V W X Y Z
.

//
Click For Plain Text...Version Of This File
 

Swingset


by Yellow Second

Share |



if you think this is wrong you are an idiot because this is right of of their website 
and THEY TABBED IT OUT!

Swingset by Yellow Second
========================

Mostly played with a 12-string acoustic.

Note: Do not play the rhythm figures until advised.

H - Natural harmonic
la - artificial (pinched) harmonic
^ - hammer/pull
' - Semitone (1 fret) bend
(b) - bend
/ - slide

---

Intro:
(keyboard part is played a second time here)


Keyboard part v Dadd2
H H H
E --17----------- ----------------------0---

B ----18---17---- ----------------------3---

G ------19------- ----------------------2---

D --------------- -----7------12--------0---

A --------------- --------12----------------

E --------------- --------------------------



Main run: (play twice)

E -------13---------12----------10---------8--------5--------3---------1-

B -----------------------------------------------------------------------

G ----14----14\12------12\10-------10\9-------9\5------5\4------4--4\2---

D --0-------------0-----------0----------0--------0--------0-------------

A -----------------------------------------------------------------------

E -----------------------------------------------------------------------



Rhythm fig.1:

B --15(w)13(r)15(w)13(r)15(w)13(r)15~~-- (hit note at 15, lower it with
whammy to 13, release, repeat)


<-- play 3 times, 2nd --> C F Dadd2
time play rhythm fig.1

E ------+--------------0-----------+-------1---0-----

B ------
------------------2-------
---1---1---3-----

G ------
--------------------2-----
---0---2---2-----

D ------
----0-3'-0------0---------
---2---3---0-----

A --0-0-
-3'---------------------0-
---3-------------

E ------+--------------------------+-----------------



Verse:

D (D/Dsus4/Dadd9) C G

E -----2-------2-----2-3-2-0--0^2-----------3---------------3-------

B -----3-------3-----3-3-3-3--3-------------3---------------3-------

G -----2-------2-----2-2-2-2--2----0--------0---------------0-------

D -----0-------0-----0-------------2--------------------------------

A ---------------------------------3--------------------------0^2---

E -----------------------------------------------------3------------


1. It dawned on me that you are not able, to get up off the floor

2a. In this broken mirror youšre sullen, and i you would deject,
2b. Vivid, bright-the colors that follow, and fill this empty room


C G C F D

E ------3-------3----------------1-----0-----0^2----------

B ------3-------3-------------1--1-----3-----------3------

G ------0-------0-------------0--2-----2-------------2----

D --2-------------------------2--3-----0---------0-----0--

A --3--------2----0^2---------3---------------------------

E -----------3--------------------------------------------


1. If up to me i would have brought this up before

2. But thoughts turn to glass,and on these things i reflect.
(Continue to 2b above)


D (D/Dsus4/Dadd9) C G

E -----2-------2-----2-3-2-0--0^2-----------3---------------3-------

B -----3-------3-----3-3-3-3--3-------------3---------------3-------

G -----2-------2-----2-2-2-2--2----0--------0---------------0-------

D -----0-------0-----0-------------2--------------------------------

A ---------------------------------3--------------------------0^2---

E -----------------------------------------------------3------------


1. If i had returned it would not have ended up like this

2. Your pekid skin, just a sign of your impending doom.


Chorus:

C G F D Dadd2

E --------3---3--------------------1----------2-----0----------

B --------3---3---3----------------1------------------3--------

G ---0--------0--------------2-----2--------------------2------

D ---2--------0--------------3-------------0-----0--------0----

A ---3--------------0^2------3---------------------------------

E ------------3------------------------------------------------


Up in the air, falling down empty handed
While unaware of the ground where you landed


E --------3---3----------------------2---0^2----------

B --------3---3---3-----------------------------3-----

G ---0--------0-----------------------------------2---

D ---2--------0---------------0--3'--0-------0------0-

A ---3--------------0^2--0^3'-------------------------

E ------------3---------------------------------------


"donšt follow me and youšll be doing fine,"


Rhythm fig.2

E ------------------------------------------------

B -13(b)15--13------------------------------------

G --------------12(b)14--12---10---12(b)14-12-----

D --------------------------------------------12~-

A ------------------------------------------------

E ------------------------------------------------


Just donšt give me that line.


Rhythm fig.3 (keyboard arranged for guitar)

E -15-14----------------

B -------15-------------

G ----------14-12-11----

D -------------------12-

A ----------------------

E ----------------------


(main run) w/rhythm fig.2
(main run) w/rhythm fig.3

Rhythm fig.4

E -13(b)15--------------------------------------------------

B -----------15~------12------------------------------------

G -----------------------12(b)14-12(b)14--12-10-------------

D -----------------------------------------------12-10-12~~-

A ----------------------------------------------------------

E ----------------------------------------------------------


(chorus) w/rhythm fig.4
(chorus)
(main run) x 2

Solo:
la la la la
E --------------------------------------------------------

B --------------------------------------------------------

G --------------------------------------------------------

D -----------------------------5(b)7-(b)7-(b)7-(b)7-5-3~--

A -x\--5\3/5---5-3-/5~---3--5-----------------------------

E --------------------------------------------------------


Saw you running after,


la
E -------------13-15---15(b)17~-15-13-15(b)17~~---------------------------------

B -------13-15------------------------------------------------------------------

G -12-14-------------------------------------------------------------------5/7~-

D ------------------------------------------------------5(b)7~--------7\5--5/7~-

A -------------------------------------------------0--0---------0--0--5\3--3/5~-

E ------------------------------------------------------------------------------


What better way to tell you

la la la la la la la la la
E -----------------------------------------------------------

B -----------------------------------------------------------

G -----------------------------------------------------------

D ---------3'---------3--5-5'-3~-----0^3^0--------3-5'-5-3~--

A -x\--3-5-----5--3-5-----------------------3^0-5------------

E -----------------------------------------------------------


Than This?
la la la
E ---------------------------------------------------------------------------

B ----------13----------------------13---------------------------------------

G --12(b)14-----12(b)14-10--12(b)14----(b)14-12-10--10~\---5-5-5-5-5-5--5/7--

D ---------------------------------------------------------5-5-5-5-5-5--5/7--

A ---------------------------------------------------------3-3-3-3-3-3--3/5--

E ---------------------------------------------------------------------------


(after the solo, accompany main 12-string chords with distorted power chords)

(chorus)

Rhythm fig.5

E -10-10-10-10-10-10-10--13(b)15--13^10---------------

B -10-10-10-10-10-10-10-----------------10---10\8/10~-

G -11-11-11-11-11-11-11-------------------------------

D ----------------------------------------------------

A ----------------------------------------------------

E ----------------------------------------------------



(chorus)

Rhythm fig.6

E -15(b)17------13-------

B -----------------15~~--

G -----------------------

D -----------------------

A -----------------------

E -----------------------


(chorus) w/rhythm fig.6

(main run)
(main run) end with Dmaj as last chord
 

 
 
 
HigherPraise, Higher Praise, HigherPraise, Higher Praise, HigherPraise
  15,000 Videos & Movies
  Sign Up |.Upload | LogIn?
  15,000 Videos Movies Song
/
 
 
  Higher Praise Other Sites
    HigherPraise.org/
Praise And Worship
www.higherpraise.org

HigherPraise.net
Christian Resources
www.higherpraise.net

ChristianLyrics.org

Lyrics And Chrords
www.christianlyrics.org

ChristianChordsLyrics

Lyrics And Chrords
www.christianchordslyrics.com

ChristianChordLyrics

Lyrics And Chrords
www.christianchordlyrics.com

WorshipLyrics.org
10.000 Illustrations
www.worshiplyrics.org

WorshipLyrics.net
10.000 Illustrations
www.worshiplyrics.net

PraiseLyrics.com
PowerPoint Lyrics

www.praiselyrics.com

PraiseLyrics.org
PowerPoint Lyrics

www.praiselyrics.org

1GodTube.com
Chistian Videos

www1godtube..com

OneGodTube.com
Chistian Videos

www.onegodtube..com
/
Š Copyright 2014, Higher Praise™ HigherPraise™,Inc. All rights reserved. Terms of Use