Child Of The Damned Tabs by Warlord

Higher Praise - Guitar Chords, Lyrics  GuitarTabs -  Praise nad Worship Music And Christian Songs

Higher Praise - Guitar Tabs, Guitar Chords, Lyrics
   Lyrics, Chords And Tabs
   Popular Lyrics Chords Tab
   Power Point Lyrics
   Praise & Worship Music
   Christian Music Videos
   15900 Videos & Audios
   Midi Files
   Worship Questions
   Christmas Chords, Lyrics
   Lyrics, Chords Tabs Rated

Sermon Outlines And Audio Sermons
   9344 Sermon Outlines
   N.T. Sermon Outlines
   O.T. Sermon Outlines
   Special Guest Outlines
   10.000 Illustrations
   Sunday School Studies
   Bible College Studies
   Greatest Preachers
   Bible Research Tools
Audio Sermons
   2895 Audio Sermons
   85 Sermon Videos
   291 Special Guests Serm

   Complete Audio Bible
Higher Praise Sunday School Teaching
   Children's NT Studies
   Children's OT Studies

   98 Children's Midis
   Gospel For Kids Movie
   Children's JESUS Film
Higher Praise Christian Video Library ,Videos
   Christian Television
   TBN TV Live
   15,000 Videos - HP Tube
   712 Youth Music Vids
  Christian Video Library
   Praise Videos #1 & #2
   85 Sermon Videos
   Prophecy Film -Videos
   JESUS Film -Video
   Childrens JESUS Film
   Gospel For Kids Movie
   Passion Of The Christ
   Noah, Sodom, Sinai, Ark
   Tsunami Videos Photos
News And Information
   Testimonies
   Submit Lyrics, Tabs, Serm
   10.000 Illustrations
   Bible College Course
   Clipart & Web Graphics
   Greatest Preachers
   Complete Talking Bible
   Christian Chat Rooms
   Links Church Resource
   HP Statement Of Faith
Download Clipart
   Audio Sermons
   Clipart & Web Graphics
   Church Administration
   Bible Study Software
   Screen Savers Software
   Verse A Day Software
   Educational Games
   Trade Center Photos

   Soft. Search Engine
Higher Praise News
   Current News
    Archived News
   Submit News
   Newsletter   Higher Praise Interact Prayer
   Prayer For All Needs
   
Submit Lyrics, Sermons
   
Contact Higher Praise
   
Advertising 
   Privacy Policy
//
He Died For You,  Click For Answer! This Is Who Jesus Is Video

'
 
0-9 A B C D E F G H I J K L M N O P Q R S T U V W X Y Z
.

//
Click For Printable...Version Of This File
 

Child Of The Damned


by Warlord

Share |



CHILD OF THE DAMNED (Warlord)



If you have anything that has to do with warlord please email me

Intro ................................................................
  E5                                                   drums fill

-----------------
-----------------
-----------------
---------------

-----------------
-----------------
-----------------
---------------

-----------2-----
-----------2-----
-----------2-----
---------------

-2-5-4h5p4---5-4-
-2-5-4h5p4---4-5-
-2-5-4h5p4---5-4-
---------------

-----------------
-----------------
-----------------
---------------

-----------------
-----------------
-----------------
---------------


Rh.Fig.1..............................................................
  E5

-----------------
-----------------
-----------------
---------------

-----------------
-----------------
-----------------
---------------

-----------2-----
-----------2-----
-----------2-----
---------2-----

-2-5-4h5p4---5-4-
-2-5-4h5p4---4-5-
-2-5-4h5p4---5-4-
---5-4-5---5-4-

-----------------
-----------------
-----------------
---------------

-----------------
-----------------
-----------------
---------------

				                                  You

 Rh.Fig.2..................................................
  E5             

-------------------------------
------------------------


*------------------------------
------------------------


--9----------------------------
-(9)--------------------


--9----------------------------
-(9)--------------------


*-7----------------------------
-(7)--------------------


-------------------------------
------------------------

    made me see right past myself through beyond my fears
    I'm so geared unto them   I    serve unto their souls

..............................................
   G5                  D5

--------------------
-----------------------

--------------------
-----------------------

--12----------------
-7---------------------

--12----------------
-7---------------------

--10----------------
-5---------------------

--------------------
-----------------------

 Realize I'm synchronized, far beyond my 
 Now that I'm addicted  my hunger only 

Rh.Fig.1..............................................................
  E5

-----------------
-----------------
-----------------
----------------


-----------------
-----------------
-----------------
---------------*


-----------2-----
-----------2-----
-----------2-----
---------2------


-2-5-4h5p4---5-4-
-2-5-4h5p4---4-5-
-2-5-4h5p4---5-4-
---5-4-5---5-4--


-----------------
-----------------
-----------------
---------------*


-----------------
-----------------
-----------------
----------------

 years.
 grows. 

 Chorus:....................................................
  E5                            G5                 F#5    E5

-----------------------------
-----------------------------

-----------------------------
-----------------------------

-9---------------------------
-12-----------------11-----9-

-9---------------------------
-12-----------------11-----9-

-7---------------------------
-10------------------9-----7-

-----------------------------
-----------------------------

  I'm the child of the damned I follow where I go

.........................................
  D5                     G5  F#5   D5 C#5  

---------------------
---------
--------

---------------------
---------
--------

-7-------------------
--12--11-
--7--6--

-7-------------------
--12--11-
--7--6--

-5-------------------
--10---9-
--5--4--

---------------------
---------
--------

 Rigging to the cross as ho- ly    as  a

..............................................
  E5

-----------------
--------------------------

-----------------
--------------------------

-----------2-----
--------------2-----------

-2-5-4h5p4---5-4-
---5---4---5-------5----4-

-----------------
--------------------------

-----------------
--------------------------

  whore              I'm just a child of the

..............................................
  E5

-----------------
--------------------------

-----------------
--------------------------

-----------2-----
--------------2-----------

-2-5-4h5p4---5-4-
---5---4---5-------5----4-

-----------------
--------------------------

-----------------
--------------------------

                     I'm just a child 

Rh.Fig.1..............................................................
  E5

-----------------
-------------2-3-
-----------------
---------------

-----------------
-----------------
-----------------
---------------

-----------2-----
-----------2-----
-----------2-----
---------2-----

-2-5-4h5p4---5-4-
-2-5-4h5p4-------
-2-5-4h5p4---5-4-
---5-4-5---5-4-

-----------------
-----------------
-----------------
---------------

-----------------
-----------------
-----------------
---------------



Rh.Fig.2..................................................
  E5             

-------------------------------
------------------------


*------------------------------
------------------------


--9----------------------------
-(9)--------------------


--9----------------------------
-(9)--------------------


*-7----------------------------
-(7)--------------------


-------------------------------
------------------------

    Witches coven time has come for those sabbatical years
    Prophets slayed mankind arrayed into a mass submission

..........................................................
   G5                          D5

----------------------------
----------------------------

----------------------------
----------------------------

--12------------------------
-7--------------------------

--12------------------------
-7--------------------------

--10------------------------
-5--------------------------

----------------------------
----------------------------

Revelation is the message         for all the world to
Evil's here the lord of hell      give you the proposition


Rh.Fig.1..............................................................
  E5

-----------------
-----------------
-----------------
----------------


-----------------
-----------------
-----------------
---------------*


-----------2-----
-----------2-----
-----------2-----
---------2------


-2-5-4h5p4---5-4-
-2-5-4h5p4---4-5-
-2-5-4h5p4---5-4-
---5-4-5---5-4--


-----------------
-----------------
-----------------
---------------*


-----------------
-----------------
-----------------
----------------

 hear.
 grows. 

 Chorus:....................................................
  E5                            G5                 F#5    E5

-----------------------------
-----------------------------

-----------------------------
-----------------------------

-9---------------------------
-12-----------------11-----9-

-9---------------------------
-12-----------------11-----9-

-7---------------------------
-10------------------9-----7-

-----------------------------
-----------------------------

  I'm the child of the damned I follow where I go

.........................................
  D5                     G5  F#5   D5 C#5  

---------------------
---------
--------

---------------------
---------
--------

-7-------------------
--12--11-
--7--6--

-7-------------------
--12--11-
--7--6--

-5-------------------
--10---9-
--5--4--

---------------------
---------
--------

 Rigging to the cross as ho- ly    as  a

..............................................
  E5

-----------------
--------------------------

-----------------
--------------------------

-----------2-----
--------------2-----------

-2-5-4h5p4---5-4-
---5---4---5-------5----4-

-----------------
--------------------------

-----------------
--------------------------

  whore              I'm just a child of the

..............................................
  E5

-----------------
--------------------------

-----------------
--------------------------

-----------2-----
--------------2-----------

-2-5-4h5p4---5-4-
---5---4---5-------5----4-

-----------------
--------------------------

-----------------
--------------------------

                     I'm just a child 

                              Solo....................................
  E5                           F#5       G5         F#5       E5

--------------
-------------
---------
----------
---------
---------

--------------
-------------
---------
----------
---------
---------

--------------
-------------
---------
----------
---------
---------

-2------------
-2-----------
-4-------
-5--------
-4-------
-2-------

-2------------
-2-----------
-4-------
-5--------
-4-------
-2-------

-0------------
-0-----------
-2-------
-3--------
-2-------
-0-------



Bridge.......................................................
    G5 F#5    E5 F#5        G5 F#5  E5 F#5  3x

----------
---------

------------------
---------5-----


*---------
--------*

*----------------*
-/8-7-8----8-7-


----------
---------

------------------
---------2-----


---5--4---
-2--4----

---5--4---2--4----
-/5-4-5----5-4-


*--5--4---
-2--4---*

*--5--4---2--4---*
---------------


---3--2---
-0--2----

---3--2---0--2----
---------------



Rh.Fig.1..............................................................
  E5

-----------------
-------------2-3-
-----------------
---------------

-----------------
-----------------
-----------------
---------------

-----------2-----
-----------2-----
-----------2-----
---------2-----

-2-5-4h5p4---5-4-
-2-5-4h5p4-------
-2-5-4h5p4---5-4-
---5-4-5---5-4-

-----------------
-----------------
-----------------
---------------

-----------------
-----------------
-----------------
---------------



Rh.Fig.2........................................................
  E5             

-------------------------------
-----------------------------


*------------------------------
-----------------------------


--9----------------------------
-(9)-------------------------


--9----------------------------
-(9)-------------------------


*-7----------------------------
-(7)-------------------------


-------------------------------
-----------------------------

  Give away your life's goals your meanings and ambittions
   Do not be afraid         the     world is near the end is it


..........................................................
   G5                          D5

----------------------------
----------------------------

----------------------------
----------------------------

--12------------------------
-7--------------------------

--12------------------------
-7--------------------------

--10------------------------
-5--------------------------

----------------------------
----------------------------

  It means nothing to you        after all it's super-
  Better to rule in           hell  than it is to serve in


Rh.Fig.1..............................................................
  E5

-----------------
-----------------
-----------------
----------------


-----------------
-----------------
-----------------
---------------*


-----------2-----
-----------2-----
-----------2-----
---------2------


-2-5-4h5p4---5-4-
-2-5-4h5p4---4-5-
-2-5-4h5p4---5-4-
---5-4-5---5-4--


-----------------
-----------------
-----------------
---------------*


-----------------
-----------------
-----------------
----------------

 stision
 heaven?

 Chorus:....................................................
  E5                            G5                 F#5    E5

-----------------------------
-----------------------------

-----------------------------
-----------------------------

-9---------------------------
-12-----------------11-----9-

-9---------------------------
-12-----------------11-----9-

-7---------------------------
-10------------------9-----7-

-----------------------------
-----------------------------

  I'm the child of the damned I follow where I go

.........................................
  D5                     G5  F#5   D5 C#5  

---------------------
---------
--------

---------------------
---------
--------

-7-------------------
--12--11-
--7--6--

-7-------------------
--12--11-
--7--6--

-5-------------------
--10---9-
--5--4--

---------------------
---------
--------

 Rigging to the cross as ho- ly    as  a

..............................................
  E5

-----------------
--------------------------

-----------------
--------------------------

-----------2-----
--------------2-----------

-2-5-4h5p4---5-4-
---5---4---5-------5----4-

-----------------
--------------------------

-----------------
--------------------------

  whore              I'm just a child of the

..............................................
  E5

-----------------
--------------------------

-----------------
--------------------------

-----------2-----
--------------2-----------

-2-5-4h5p4---5-4-
---5---4---5-------5----4-

-----------------
--------------------------

-----------------
--------------------------

                     I'm just a child 

Outro:................................................

--------------------------
---------------5----------

--------------------------
---8---7---8-------8---7--

--------------2-----------
--------------------------

---5---4---5-------5----4-
--------------------------

--------------------------
--------------------------

--------------------------
--------------------------

                              I'm just a child of the


............................
   E5        G5 F#5 D5 C#5

--------------------------

--------------------------

--9---------12--11--7--6--

--9---------12--11--7--6--

--7---------10---9--5--4--

--------------------------

  Damned___________________
 


/
How To Set Up Higher Praise As Your Home Page
Copyright 1999, Higher Praise HigherPraise,Inc. All rights reserved. Terms of Use

Enjoy A Life Changing Experience

 
 
 
HigherPraise, Higher Praise, HigherPraise, Higher Praise, HigherPraise

Members..Sign Up. LogIn

 
 

Higher Praise Other Sites
 
 

HigherPraise.org/
Praise And Worship
www.higherpraise.org

HigherPraise.net
Christian Resources
www.higherpraise.net

HigherPraiseTube.com
Videos And Audios
www.higherpraisetube.com.


ChristianLyrics.org

Lyrics And Chrords
www.christianlyrics.org

ChristianChordsLyrics

Lyrics And Chrords
www.christianchordslyrics.com

ChristianChordLyrics

Lyrics And Chrords
www.christianchordlyrics.com

WorshipLyrics.org
10.000 Illustrations
www.worshiplyrics.org

WorshipLyrics.net
10.000 Illustrations
www.worshiplyrics.net

PraiseLyrics.com
PowerPoint Lyrics

www.praiselyrics.com

PraiseLyrics.org
PowerPoint Lyrics

www.praiselyrics.org

1GodTube.com
Chistian Videos

www1godtube..com

OneGodTube.com
Chistian Videos

www.onegodtube..com

 

/
Copyright 1999 - 2019, Higher Praise™ HigherPraise™,Inc. All rights reserved. Terms of Use