Please Tabs by U2

Higher Praise - Guitar Chords, Lyrics  GuitarTabs -  Praise nad Worship Music And Christian Songs

Higher Praise - Guitar Tabs, Guitar Chords, Lyrics
   Lyrics, Chords And Tabs
   Popular Lyrics Chords Tab
   Power Point Lyrics
   Praise & Worship Music
   Christian Music Videos
   15900 Videos & Audios
   Midi Files
   Worship Questions
   Christmas Chords, Lyrics
   Lyrics, Chords Tabs Rated

Sermon Outlines And Audio Sermons
   9344 Sermon Outlines
   N.T. Sermon Outlines
   O.T. Sermon Outlines
   Special Guest Outlines
   10.000 Illustrations
   Sunday School Studies
   Bible College Studies
   Greatest Preachers
   Bible Research Tools
Audio Sermons
   2895 Audio Sermons
   85 Sermon Videos
   291 Special Guests Serm

   Complete Audio Bible
Higher Praise Sunday School Teaching
   Children's NT Studies
   Children's OT Studies

   98 Children's Midis
   Gospel For Kids Movie
   Children's JESUS Film
Higher Praise Christian Video Library ,Videos
   Christian Television
   TBN TV Live
   15,000 Videos - HP Tube
   712 Youth Music Vids
  Christian Video Library
   Praise Videos #1 & #2
   85 Sermon Videos
   Prophecy Film -Videos
   JESUS Film -Video
   Childrens JESUS Film
   Gospel For Kids Movie
   Passion Of The Christ
   Noah, Sodom, Sinai, Ark
   Tsunami Videos Photos
News And Information
   Testimonies
   Submit Lyrics, Tabs, Serm
   10.000 Illustrations
   Bible College Course
   Clipart & Web Graphics
   Greatest Preachers
   Complete Talking Bible
   Christian Chat Rooms
   Links Church Resource
   HP Statement Of Faith
Download Clipart
   Audio Sermons
   Clipart & Web Graphics
   Church Administration
   Bible Study Software
   Screen Savers Software
   Verse A Day Software
   Educational Games
   Trade Center Photos

   Soft. Search Engine
Higher Praise News
   Current News
    Archived News
   Submit News
   Newsletter   Higher Praise Interact Prayer
   Prayer For All Needs
   
Submit Lyrics, Sermons
   
Contact Higher Praise
   
Advertising 
   Privacy Policy
//
He Died For You,  Click For Answer! This Is Who Jesus Is Video

'
 
0-9 A B C D E F G H I J K L M N O P Q R S T U V W X Y Z
.

//
Click For Printable...Version Of This File
 

Please


by U2

Share |



#----------------------------------PLEASE NOTE--------------------------------#
#This file is the author's own work and represents their interpretation of the#
#song. You may only use this file for private study, scholarship, or research.#
#-----------------------------------------------------------------------------#
      "PLEASE"

U2 from the album "POP"


Tune down 1/2 step...


Riff 1 (Rhythm)

e-------
------------
------------
----------------
--

B-------
------------
------------
----------------
--

G-----4-
----4-----4-
----4-----4-
----------------
--

D-----4-
-4--4--7--4-
-4--4--7--4-
-7--4--7-7---4--
--

A-------
------------
------------
----------------
--

E-------
------------
------------
----------------
--



Riff 2 (Some distorsion)

e-----
--------(2)---------(2)---

B-----
----2-3--------2----------

G--4--
-4----------4-----4-------

D-----
--------------------------

A-----
--------------------------

E-----
--------------------------



Riff 1
So you never knew love until you crossed the line of grace

and you never felt wanted till you had someone slap your face

so you never felt alive until you almost wasted away


Bm
You had to win
    A
you couldn't just pass

the smartest ass
       Bm
at the top of the class

your flying colours
     A
your family tree
                        Bm
and all your lessons in history


Riff 2
Please...please...please...get up off your knees...

please...please...please...please


Riff 1
And you never knew how low you'd stoop to make that call

and you never knew what was on the ground till they made you crawl

and you never knew that the heaven you keep you stole


     Bm
Your catholic blues
     A
your convent shoes

your stick on tatoos
    Bm
now they're making the news

your holy war
     A
your northern star

your sermon on the mount
         Bm
from the boot of your car


Riff 2
Please...please...please...get up off your knees...

please...please...please...leave me out of this please


   Bm      A        A        Bm
So love is hard and love is tough
    Bm      A               Em       Bm
but love is not what you're thinking of


Riff 3 (wah-wah)
   Bm            A                                       Bm
e-------------------------------
------------------------------
--

B-------------------------------
------------------------------
--

G--4--4-2---2---2---2---2-------
--4-2-----2---2---2---2-------
--

D--4------4---4---4---4---4-2---
--------4---4---4---4---4-2---
--

A-----------------------------0-
----------------------------2-
--

E-------------------------------
------------------------------
--



Riff 3
September...streets capsizing...spilling over down the rain...

shards of glass splinters like rain but you could only feel your own pain...

october...talking getting nowhere...

november...december...remember...

are we just starting again...


Riff 4

e------------
------------
---

B----2---2---
----3---3---
---

G--4---4---4-
--4---4---4-
---

D------------
------------
---

A------------
------------
---

E------------
------------
---



Riff 4
Please...please...please...get up off your knees...

please...please...please...please


Riff 5 (rhythm)
    Bm                     A
e-----------------------
----------------------
----------------------
---

B----5---5---5---5----5-
---2---2---2---2----2-
---5---5---5---5----5-
---

G--4---4---4---4---4----
-4---4---4---4---4----
-4---4---4---4---4----
---

D-----------------------
----------------------
----------------------
---

A-----------------------
----------------------
----------------------
---

E-----------------------
----------------------
----------------------
---

   Bm
e-----------------------
---

B----3---3---3---3----3-
---

G--4---4---4---4---4----
---

D-----------------------
---

A-----------------------
---

E-----------------------
---



Riff 6 (rhythm)
  Bm                  A
e------------------------
---

B----5---5---5---5----3--
---

G--4---4---4---4---4-----
---

D------------------------
---

A------------------------
---

E------------------------
---



Riff 5
So love is big bigger than us

but love is not what you're thinking of
Riff 6
it's what lovers deal it's what lovers steal

you know I've found it hard to receive
       Bm     A            Em    Riff 7
'cause you my love I could never believe


Riff 7

e---------

B---------

G----2----

D--4---4--

A---------

E---------

 


/
How To Set Up Higher Praise As Your Home Page
Copyright 1999, Higher Praise HigherPraise,Inc. All rights reserved. Terms of Use

Enjoy A Life Changing Experience

 
 
 
HigherPraise, Higher Praise, HigherPraise, Higher Praise, HigherPraise

Members..Sign Up. LogIn

 
 

Higher Praise Other Sites
 
 

HigherPraise.org/
Praise And Worship
www.higherpraise.org

HigherPraise.net
Christian Resources
www.higherpraise.net

HigherPraiseTube.com
Videos And Audios
www.higherpraisetube.com.


ChristianLyrics.org

Lyrics And Chrords
www.christianlyrics.org

ChristianChordsLyrics

Lyrics And Chrords
www.christianchordslyrics.com

ChristianChordLyrics

Lyrics And Chrords
www.christianchordlyrics.com

WorshipLyrics.org
10.000 Illustrations
www.worshiplyrics.org

WorshipLyrics.net
10.000 Illustrations
www.worshiplyrics.net

PraiseLyrics.com
PowerPoint Lyrics

www.praiselyrics.com

PraiseLyrics.org
PowerPoint Lyrics

www.praiselyrics.org

1GodTube.com
Chistian Videos

www1godtube..com

OneGodTube.com
Chistian Videos

www.onegodtube..com

 

/
Copyright 1999 - 2019, Higher Praise™ HigherPraise™,Inc. All rights reserved. Terms of Use