Playing For Keeps Tabs by Switchfoot

Higher Praise - Guitar Chords, Lyrics  GuitarTabs -  Praise nad Worship Music And Christian Songs

Higher Praise - Guitar Tabs, Guitar Chords, Lyrics
   Lyrics, Chords And Tabs
   Popular Lyrics Chords Tab
   Power Point Lyrics
   Praise & Worship Music
   Christian Music Videos
   15900 Videos & Audios
   Midi Files
   Worship Questions
   Christmas Chords, Lyrics
   Lyrics, Chords Tabs Rated

Sermon Outlines And Audio Sermons
   9344 Sermon Outlines
   N.T. Sermon Outlines
   O.T. Sermon Outlines
   Special Guest Outlines
   10.000 Illustrations
   Sunday School Studies
   Bible College Studies
   Greatest Preachers
   Bible Research Tools
Audio Sermons
   2895 Audio Sermons
   85 Sermon Videos
   291 Special Guests Serm

   Complete Audio Bible
Higher Praise Sunday School Teaching
   Children's NT Studies
   Children's OT Studies

   98 Children's Midis
   Gospel For Kids Movie
   Children's JESUS Film
Higher Praise Christian Video Library ,Videos
   Christian Television
   TBN TV Live
   15,000 Videos - HP Tube
   712 Youth Music Vids
  Christian Video Library
   Praise Videos #1 & #2
   85 Sermon Videos
   Prophecy Film -Videos
   JESUS Film -Video
   Childrens JESUS Film
   Gospel For Kids Movie
   Passion Of The Christ
   Noah, Sodom, Sinai, Ark
   Tsunami Videos Photos
News And Information
   Testimonies
   Submit Lyrics, Tabs, Serm
   10.000 Illustrations
   Bible College Course
   Clipart & Web Graphics
   Greatest Preachers
   Complete Talking Bible
   Christian Chat Rooms
   Links Church Resource
   HP Statement Of Faith
Download Clipart
   Audio Sermons
   Clipart & Web Graphics
   Church Administration
   Bible Study Software
   Screen Savers Software
   Verse A Day Software
   Educational Games
   Trade Center Photos

   Soft. Search Engine
Higher Praise News
   Current News
    Archived News
   Submit News
   Newsletter   Higher Praise Interact Prayer
   Prayer For All Needs
   
Submit Lyrics, Sermons
   
Contact Higher Praise
   
Advertising 
   Privacy Policy
//
He Died For You,  Click For Answer! This Is Who Jesus Is Video

'
 
0-9 A B C D E F G H I J K L M N O P Q R S T U V W X Y Z
.

//
Click For Printable...Version Of This File
 

Playing For Keeps


by Switchfoot

Share |



----------------------------------------------------------------------------
			   Playing For Keeps - Switchfoot
----------------------------------------------------------------------------

Song: Playing For Keeps
Band: Switchfoot
Album: Learning To Breathe



This song is one off of Switchfoot's 2000 album, Learning To Breathe. Its got a nice 
to it and I just like the song in general. Nobody tabbed it but I think it's one of the 
songs on this album so I decided to give it a shot. Hope ya like it and please rate!

Guitar 1: Make sure you have plenty of distortion here for the best sound.
Play 2x.
e
----------------------------------------------

B
----------------------------------------------

G
------------------9-----9-9-x9-9-999---9999---

D
-9-9-x9-9-999----999----9-9-x9-9-999---9999---

A
-7-7-x7-7-777----777----7-7-x7-7-777---7777---

E
----------------------------------------------

Guitar 2: Make sure you get a full bend.
e
--------------

B
--------------

G
--13b--13b----

D
--------------

A
--------------

E
--------------


VERSE 1: Basically the same thing the whole way through until the prechorus. Also, this 
is played clean.
e
----------------------------------

B
----------------------------------

G
----------------------------------

D
--9-9-x999-99----9-9-x999-99------

A
--7-7-x777-77----7-7-x777-77------

E
----------------------------------



PRECHORUS: "Would you do it for me?" Bring back your distortion.
e
------------------------------------------

B
------------------------------------------

G
------------------------------------------

D
-555555--999999--777777--999999--xxxxx----

A
-555555--999999--777777--999999--xxxxx----

E
-333333--777777--555555--777777--xxxxx----



CHROUS: Both guitars play the same thing during this part. Distortion on.
Play 4x and on the the 4th time through you finish with this:
e
-------------------------------------
----------

B
-------------------------------------
----------

G
-9-9-999-----------------------------
----------

D
-9-9-999--9-9-999--7-7-777-7777777---
-----9~---

A
-7-7-777--9-9-999--7-7-777-7777777---
-----9~---

E
----------7-7-777--5-5-555-5555555---
-----7~---


INTERLUDE: "Yeeaahhh, time for movin on..."
e
-0~~~---0~~~---0~~~---0~~~------

B
-0~~~---0~~~---0~~~---0~~~------

G
-9~~~---9~~~---9~~~---9~~~------

D
-9~~~---9~~~---9~~~---9~~~------

A
-7~~~---7~~~---7~~~---7~~~------

E
--------------------------------

Guitar 2: It's pretty soft and uses a kind of wah effect and some feedback.
e
--------------------------------

B
--------------------------------

G
-13b~---13b~---13b~--13b~-------

D
--------------------------------

A
--------------------------------

E
--------------------------------


VERSE 2: Same strumming as VERSE 1. Make sure you turn off the distortion.
e
----------------------------------

B
----------------------------------

G
--9-9-x999-99----9-9-x999-99------

D
--x-x-xxxx-xx----x-x-xxxx-xx------

A
--7-7-x777-77----7-7-x777-77------

E
----------------------------------

Guitar 2: Listen for when it comes in because it doesnt play the whole time.
e
----------------

B
----------------

G
-8888---666-----

D
-xxxx---xxx-----

A
-6666---444-----

E
----------------



BRIDGE: This is the slow part after the 2nd chorus where Jon sings "Do me a favor, Do me 
favor..." Strum the first part until "Cuz I'm playin for Keeeeepss" Then play this 
part in the place of a Prechorus.
e
-0-0-0000-0000---
-----------------------------

B
-0-0-0000-0000---
-----------------------------

G
-9-9-9999-9999---
-----------------------------

D
-9-9-9999-9999---
---999999999999--xxxxx-------

A
-7-7-7777-7777---
---999999999999--xxxxx-------

E
-----------------
---777777777777--xxxxx-------

Then go to the Chorus.


OUTRO: A lot like the Interlude except for the ending.
Guitar 1: Same as the Interlude until the end when you strum it a little bit, hit the 
chord, and let that ring.
e
-0~~~---0~~~---0~~~---0~~~----------0~-----

B
-0~~~---0~~~---0~~~---0~~~----------0~-----

G
-9~~~---9~~~---9~~~---9~~~-----9999-9~-----

D
-9~~~---9~~~---9~~~---9~~~-----9999-9~-----

A
-7~~~---7~~~---7~~~---7~~~-----7777-7~-----

E
-------------------------------------------

Guitar 2: Same as the Interlude with the wah and feedback until the very end where you 
an extra part.
e
------------------------------------------

B
------------------------------------------

G
-13b~---13b~---13b~--13b~---11/13--9~-----

D
------------------------------------------

A
------------------------------------------

E
------------------------------------------



That's all. Pretty simple and I hope you like it!
Rock On.
 


/
How To Set Up Higher Praise As Your Home Page
Copyright 1999, Higher Praise HigherPraise,Inc. All rights reserved. Terms of Use

Enjoy A Life Changing Experience

 
 
 
HigherPraise, Higher Praise, HigherPraise, Higher Praise, HigherPraise

Members..Sign Up. LogIn

 
 

Higher Praise Other Sites
 
 

HigherPraise.org/
Praise And Worship
www.higherpraise.org

HigherPraise.net
Christian Resources
www.higherpraise.net

HigherPraiseTube.com
Videos And Audios
www.higherpraisetube.com.


ChristianLyrics.org

Lyrics And Chrords
www.christianlyrics.org

ChristianChordsLyrics

Lyrics And Chrords
www.christianchordslyrics.com

ChristianChordLyrics

Lyrics And Chrords
www.christianchordlyrics.com

WorshipLyrics.org
10.000 Illustrations
www.worshiplyrics.org

WorshipLyrics.net
10.000 Illustrations
www.worshiplyrics.net

PraiseLyrics.com
PowerPoint Lyrics

www.praiselyrics.com

PraiseLyrics.org
PowerPoint Lyrics

www.praiselyrics.org

1GodTube.com
Chistian Videos

www1godtube..com

OneGodTube.com
Chistian Videos

www.onegodtube..com

 

/
Copyright 1999 - 2019, Higher Praise™ HigherPraise™,Inc. All rights reserved. Terms of Use