412 Tabs by Switchfoot

Higher Praise - Guitar Chords, Lyrics  GuitarTabs -  Praise nad Worship Music And Christian Songs

Higher Praise - Guitar Tabs, Guitar Chords, Lyrics
   Lyrics, Chords And Tabs
   Popular Lyrics Chords Tab
   Power Point Lyrics
   Praise & Worship Music
   Christian Music Videos
   15900 Videos & Audios
   Midi Files
   Worship Questions
   Christmas Chords, Lyrics
   Lyrics, Chords Tabs Rated

Sermon Outlines And Audio Sermons
   9344 Sermon Outlines
   N.T. Sermon Outlines
   O.T. Sermon Outlines
   Special Guest Outlines
   10.000 Illustrations
   Sunday School Studies
   Bible College Studies
   Greatest Preachers
   Bible Research Tools
Audio Sermons
   2895 Audio Sermons
   85 Sermon Videos
   291 Special Guests Serm

   Complete Audio Bible
Higher Praise Sunday School Teaching
   Children's NT Studies
   Children's OT Studies

   98 Children's Midis
   Gospel For Kids Movie
   Children's JESUS Film
Higher Praise Christian Video Library ,Videos
   Christian Television
   TBN TV Live
   15,000 Videos - HP Tube
   712 Youth Music Vids
  Christian Video Library
   Praise Videos #1 & #2
   85 Sermon Videos
   Prophecy Film -Videos
   JESUS Film -Video
   Childrens JESUS Film
   Gospel For Kids Movie
   Passion Of The Christ
   Noah, Sodom, Sinai, Ark
   Tsunami Videos Photos
News And Information
   Testimonies
   Submit Lyrics, Tabs, Serm
   10.000 Illustrations
   Bible College Course
   Clipart & Web Graphics
   Greatest Preachers
   Complete Talking Bible
   Christian Chat Rooms
   Links Church Resource
   HP Statement Of Faith
Download Clipart
   Audio Sermons
   Clipart & Web Graphics
   Church Administration
   Bible Study Software
   Screen Savers Software
   Verse A Day Software
   Educational Games
   Trade Center Photos

   Soft. Search Engine
Higher Praise News
   Current News
    Archived News
   Submit News
   Newsletter   Higher Praise Interact Prayer
   Prayer For All Needs
   
Submit Lyrics, Sermons
   
Contact Higher Praise
   
Advertising 
   Privacy Policy
//
He Died For You,  Click For Answer! This Is Who Jesus Is Video

'
 
0-9 A B C D E F G H I J K L M N O P Q R S T U V W X Y Z
.

//
Click For Printable...Version Of This File
 

412


by Switchfoot

Share |



It's kinda cool because this song is called "4:12" and it lasts four minutes and twelve 
on windows media player it looks like this:
4:12           4:12

lol yeah, so anyway, here's the tab for it:

Verse 1: guitar 2
e-------------------------------------------------------------------------->
B-------------------------------------------------------------------------->
G-------------------------------------------------------------------------->
D-3-33--------------3-33--------------3-33--------------3-33--------------->
A-----3-33--------------3-33--------------3-33--------------3-33----------->
E---------333-333-33--------333-333-33--------333-333-33--------333-333-33->
Youíve been having trouble staying asleep/Youíve been waking up at 4:12/You
roll the voices over in your head/then you try to put them neatly on the
shelf

Verse 1: guitar 1 (*= palm muting)
/e-1131--3---3----3-1131--3---3----3-1131--3---3----3-1131--3---3----3---->
\

B-----55-533-3-33-3----55-533-3-33-3----55-533-3-33-3----55-533-3-33-3--->

G-------------0----------------0----------------0----------------0------->

D------------------------------------------------------------------------>

A------------------------------------------------------------------------>

E------------------------------------------------------------------------>

  ***************************************************************       

Verse 1: guitar 2                                                       

e------------------------------------------------------------------------>

B------------------------------------------------------------------------>

G------------------------------------------------------------------------>

D-3-33-------------3-33-------------3-33-------------3-33---------------->

A-----3-33-------------3-33-------------3-33-------------3-33------------>

\E---------333-33-33--------333-33-33--------333-33-33--------333333333--->
/
You watch the sun rise/You saw the darkness had no choice before the dawn/
With your own eyes/And then you broke out laughing from a yawn/You said,

Chorus: guitar 1
/e-33333333333333333333333333333333----22220000----0-0-0~---------->
\

B-333003353330033533300335333003350000--------00000-0-0~---------->

G-00000000000000000000000000000000-------------------------------->

D----------------------------------------------------------------->

A----------------------------------------------------------------->

E----------------------------------------------------------------->

                                                                 

Chorus: guitar 2                                                 

e-------------------------------------------------0~-------------->

B-------------------------------------------------0~-------------->

G-7777----7777----7777----7777----999977775555----5~-------------->

D-7777555577775555777755557777555599997777555555557~-------------->

A-5555555555555555555555555555555577775555333355557~-------------->

\E-----3333----3333----3333----3333------------33335~-------------->
/
ďIím so sorry Iíve been so down. I started doubting things could ever turn
around. And I began to believe that all we are is material. Itís
nonsensical.Ē

Fill: guitar 2
e--------------------->
B--------------------->
G--------------------->
D-3-33---------------->
A-----3-33------------>
E---------333-333-333->

Verse 2: guitar 2
e-------------------------------------------------------------------------->
B-------------------------------------------------------------------------->
G-------------------------------------------------------------------------->
D-------------------------------------------------------------------------->
A-------------------------------------------------------------------------->
E---------333-333-33--------333-333-33--------333-333-33--------333-333-33->
So you walk outside and everythingís new/Youíre looking at the world with
new eyes. As if youíd never seen a sky before that is blue/As if youíve
never seen the sky in your whole life

Verse 2: guitar 1 (*= palm muting)
/e-1131--3---3----3-1131--3---3----3-1131--3---3----3-1131--3---3----3---->
\

B-----55-533-3-33-3----55-533-3-33-3----55-533-3-33-3----55-533-3-33-3--->

G-------------0----------------0----------------0----------------0------->

D------------------------------------------------------------------------>

A------------------------------------------------------------------------>

E------------------------------------------------------------------------>

  ***************************************************************       

Verse 2: guitar 2                                                       

e------------------------------------------------------------------------>

B------------------------------------------------------------------------>

G------------------------------------------------------------------------>

D-3-33-------------3-33-------------3-33-------------3-33---------------->

A-----3-33-------------3-33-------------3-33-------------3-33------------>

\E---------333-33-33--------333-33-33--------333-33-33--------333333333--->
/
And then the phone rings/as it turns out you are already late/and now
youíre wondering/was peace just a temporary state?

Chorus 2: guitar 1
/e-33333333333333333333333333333333----22220000----0-0-0~---------->
\

B-333003353330033533300335333003350000--------00000-0-0~---------->

G-00000000000000000000000000000000-------------------------------->

D----------------------------------------------------------------->

A----------------------------------------------------------------->

E----------------------------------------------------------------->

                                                                 

Chorus 2: guitar 2                                               

e-------------------------------------------------0~-------------->

B-------------------------------------------------0~-------------->

G-7777----7777----7777----7777----999977775555----5~-------------->

D-7777555577775555777755557777555599997777555555557~-------------->

A-5555555555555555555555555555555577775555333355557~-------------->

\E-----3333----3333----3333----3333------------33335~-------------->
/
Youíre waiting tables and parking cars/Youíve been selling cell phones at
the shopping mall/and you began to believe that all you are is
material/Itís nonsensical

Bridge: keyboard
Yeah, ohÖ

Fill 2: guitar 2
e--------------------------------------->
B--------------------------------------->
G--------------------------------------->
D-3-33--------------3-33---------------->
A-----3-33--------------3-33------------>
E---------333-333-33--------333-333-333->

Chorus 3: guitar 1
/e-333333333333333355555555555555555~--4~--2~--0~--2~--4~--2~--0~--2~---->
\

B-3330033533300335555--557555--5577~--5~--3~--2~--2~--5~--3~---2~-2~---->

G-0000000000000000---66------66--6------------2~------------------------>

D-----------------7777777777777777-------------------------------------->

A----------------------------------------------------------------------->

E----------------------------------------------------------------------->

                                                                       

Chorus 3: guitar 2                                                     

e----------------------------------------------------------------------->

B---------------------------------10~-9~--7~----------10~-7~------------>

G-7777----7777----9999----9999----11~-9~--7~--6~--7~--11~-7~--6~--7~---->

D-7777555577775555999977779999777711~-9~--7~--7~--9~--11~-7~--7~--9~---->

A-555555555555555577777777777777779~--7~--5~--7~--9~--9~--5~--7~--9~---->

\E-----3333----3333----5555----5555------------5~--7~----------5~--7~---->
/
ďIím so sorry Iíve been so down. I started doubting things could ever turn
around. And I still canít believe that all we are/and that all of are
dreams are nothing more than material

bridge 2: guitar 1
e------------------------------------------------33333333333333333333---33->
B-3---5---6---8---6~--5~--3~------6~--5~--3~------------------------------->
G-2---4---5---7---5~--5~--4~------5~--5~--4~-------------------------000--->
D-------------------------------------------------------------------------->
A-------------------------------------------------------------------------->
E-------------------------------------------------------------------------->
Souls arenít built of stone, Sticks and bones ohÖ

Outro: guitar 1
/e-55553333333333333333555533333333333333333555533333333333----------------->
\

B-------------------------------------------------------------------------->

G-------------------------------------------------------------------------->

D-------------------------------------------------------------------------->

A-------------------------------------------------------------------------->

E-------------------------------------------------------------------------->

                                                                          

Outro: guitar 2                                                           

e--1-1-1-1-1-1-1-1-1-1-1-1-1-1-1-1-1-1-1-1-1-1-1-1-1-1-1-1-1-1-1-1-1-1-1--->

B--3-3-3-3-3-3-3-3-3-3-3-3-3-3-3-3-3-3-3-3-3-3-3-3-3-3-3-3-3-3-3-3-3-3-3--->

G-------------------------------------------------------------------------->

D-------------------------------------------------------------------------->

A-------------------------------------------------------------------------->

\E-------------------------------------------------------------------------->
/
Souls arenít built of stone, Sticks and bones/and souls arenít built of
stone
 


/
How To Set Up Higher Praise As Your Home Page
Copyright 1999, Higher Praise HigherPraise,Inc. All rights reserved. Terms of Use

Enjoy A Life Changing Experience

 
 
 
HigherPraise, Higher Praise, HigherPraise, Higher Praise, HigherPraise

Members..Sign Up. LogIn

 
 

Higher Praise Other Sites
 
 

HigherPraise.org/
Praise And Worship
www.higherpraise.org

HigherPraise.net
Christian Resources
www.higherpraise.net

HigherPraiseTube.com
Videos And Audios
www.higherpraisetube.com.


ChristianLyrics.org

Lyrics And Chrords
www.christianlyrics.org

ChristianChordsLyrics

Lyrics And Chrords
www.christianchordslyrics.com

ChristianChordLyrics

Lyrics And Chrords
www.christianchordlyrics.com

WorshipLyrics.org
10.000 Illustrations
www.worshiplyrics.org

WorshipLyrics.net
10.000 Illustrations
www.worshiplyrics.net

PraiseLyrics.com
PowerPoint Lyrics

www.praiselyrics.com

PraiseLyrics.org
PowerPoint Lyrics

www.praiselyrics.org

1GodTube.com
Chistian Videos

www1godtube..com

OneGodTube.com
Chistian Videos

www.onegodtube..com

 

/
© Copyright 1999 - 2019, Higher Praise™ HigherPraise™,Inc. All rights reserved. Terms of Use