Higher Praise - Guitar Chords, Lyrics  GuitarTabs -  Praise nad Worship Music And Christian Songs

Higher Praise - Guitar Tabs, Guitar Chords, Lyrics
   Lyrics, Chords And Tabs
   Popular Lyrics Chords Tab
   Power Point Lyrics
   Praise & Worship Music
   Christian Music Videos
   15900 Videos & Audios
   Midi Files
   Worship Questions
   Christmas Chords, Lyrics
   Lyrics, Chords Tabs Rated

Sermon Outlines And Audio Sermons
   9344 Sermon Outlines
   N.T. Sermon Outlines
   O.T. Sermon Outlines
   Special Guest Outlines
   10.000 Illustrations
   Sunday School Studies
   Bible College Studies
   Greatest Preachers
   Bible Research Tools
Audio Sermons
   2895 Audio Sermons
   85 Sermon Videos
   291 Special Guests Serm

   Complete Audio Bible
Higher Praise Sunday School Teaching
   Children's NT Studies
   Children's OT Studies

   98 Children's Midis
   Gospel For Kids Movie
   Children's JESUS Film
Higher Praise Christian Video Library ,Videos
   Christian Television
   TBN TV Live
   15,000 Videos - HP Tube
   712 Youth Music Vids
  Christian Video Library
   Praise Videos #1 & #2
   85 Sermon Videos
   Prophecy Film -Videos
   JESUS Film -Video
   Childrens JESUS Film
   Gospel For Kids Movie
   Passion Of The Christ
   Noah, Sodom, Sinai, Ark
   Tsunami Videos Photos
News And Information
   Testimonies
   Submit Lyrics, Tabs, Serm
   10.000 Illustrations
   Bible College Course
   Clipart & Web Graphics
   Greatest Preachers
   Complete Talking Bible
   Christian Chat Rooms
   Links Church Resource
   HP Statement Of Faith
Download Clipart
   Audio Sermons
   Clipart & Web Graphics
   Church Administration
   Bible Study Software
   Screen Savers Software
   Verse A Day Software
   Educational Games
   Trade Center Photos

   Soft. Search Engine
Higher Praise News
   Current News
    Archived News
   Submit News
   Newsletter   Higher Praise Interact Prayer
   Prayer For All Needs
   
Submit Lyrics, Sermons
   
Contact Higher Praise
   
Advertising 
   Privacy Policy
//
He Died For You,  Click For Answer! This Is Who Jesus Is Video

'
 
0-9 A B C D E F G H I J K L M N O P Q R S T U V W X Y Z
.

//
Click For Printable...Version Of This File
 

Hearts Cry


by Steven Curtis Chapman




****************************************
Song: "Heart's Cry"
Artist: Steven Curtis Chapman
Album: The Great Adventure
Copyright: 1992 The Sparrow Corporation

****************************************


Fingering Positions:

         G                       C 7/6                  Cm 7/6                 Bm
  
---
---
-4-
---
        
---
---
-4-
---
      
---
---
-4-
---
      
---
-1-
---
---

 0
(1)
---
---
---
       0
---
---
---
---
     0
---
---
---
---
      
---
-1-
-2-
---

 0
---
(2)
---
---
       0
---
(2)
---
---
      
---
-2-
---
---
      
---
-1-
---
-4-

 0
---
---
---
---
        
---
-1-
---
---
      
-1-
---
---
---
      
---
-1-
---
-3-

  
---
---
---
---
        
---
---
-3-
---
      
---
---
-3-
---
      
---
-1-
---
---

  
---
---
-3-
---
        
---
---
---
---
      
---
---
---
---
      
---
---
---
---



        Bm/G#                     Am2                   C2no3                   F/A
  
---
-1-
---
---
        
---
---
---
---
      
---
---
-4-
---
      
---
---
---
---

  
---
-1-
-2-
---
        
-1-
---
---
---
      
---
---
-3-
---
      
-1-
---
---
---

  
---
-1-
---
-4-
        
---
---
---
-4-
     0
---
---
---
---
      
---
-2-
---
---

  
---
-1-
---
---
        
---
-2-
---
---
     0
---
---
---
---
      
---
---
-3-
---

  
---
-1-
---
---
       0
---
---
---
---
      
---
---
-2-
---
     0
---
---
---
---

  
---
---
---
-3-
        
---
---
---
---
      
---
---
---
---
      
---
---
---
---



      6  Bb                    5  F/A(2)               4  Ab                 3  Eb/G
  
-1-
---
---
---
        
-1-
---
---
-4-
      
-1-
---
---
---
      
-1-
---
---
-4-

  
-1-
---
---
---
        
-1-
-2-
---
---
      
-1-
---
---
---
      
-1-
-2-
---
---

  
-1-
-2-
---
---
        
-1-
---
---
---
      
-1-
-2-
---
---
      
-1-
---
---
---

  
-1-
---
---
---
        
-1-
---
---
---
      
-1-
---
---
---
      
-1-
---
---
---

  
-1-
---
---
---
        
-1-
---
---
---
      
-1-
---
---
---
      
-1-
---
---
---

  
-1-
---
---
---
        
-1-
---
---
---
      
-1-
---
---
---
      
-1-
---
---
---



         F#                      Bb/F                  3  Eb7                3  Cm7
  
---
-1-
---
---
        
-1-
---
---
---
      
-1-
---
---
---
      
-1-
---
---
---

  
---
-1-
---
---
        
-1-
---
-4-
---
      
-1-
---
---
---
      
-1-
-2-
---
---

  
---
-1-
-2-
---
        
-1-
---
-3-
---
      
-1-
---
---
---
      
-1-
---
---
---

  
---
-1-
---
---
        
-1-
---
---
---
      
-1-
---
-3-
---
      
-1-
---
-3-
---

  
---
-1-
---
---
        
-1-
---
---
---
      
-1-
---
---
-4-
      
-1-
---
---
---

  
---
-1-
---
---
        
---
---
---
---
      
---
---
---
---
      
-1-
---
---
---


       Ending                                  5       7
  
---
---
---
---
        
---
---
---
---
---
---
---
---

  
---
---
(3)
---
        
---
---
---
---
---
---
-4-
---

  
---
(1)
---
---
        
---
---
---
---
-3-
---
-4-
---

  
---
---
---
---
        
---
---
---
---
---
---
-4-
---

  
---
---
---
(3)
        
---
---
---
---
---
---
---
---

  
---
---
---
---
        
---
---
---
---
---
---
---
---

  
---
---
-2-
---
        
---
---
-1-
---
---
---
---
---


Note: I'm not very good at naming chords so they may not all be right but this is the fingering
that I use.  If something doesn't sound right please let me know because I was sorta in 
hurry
when I was tabbing this and I might have (probably did) made a mistake.  Also please 
any
corrections to the above email address.  I also noted where he does the Bridge that it's not
how he does it but it sounds okay.  I play farther down (or is it up, anyway closer to 
body)
on the neck than he does, but if anyone can figure out what he's playing please let me 
 I
know this because I saw him on the Live Adventure Video playing this song, but I can't 
which
chords he's using.  Anyway enjoy it and God bless.

Intro

    G
E----------------------------------------------------------

B-------------1-0--------------------------1-0-------------

G-----0-0h2-0-2-0-0-0h2p0----------0-0h2-0-2-0-0-0h2p0-----

D----0--------------------2p0-----0--------------------2p0-

A----------------------------------------------------------

E---3----------------------------3-------------------------


E----------------------------------------------------------

B-------------1-0----------------------------1-------------

G-----0-0h2-0-2-0-0-0h2p0----------0-0h2-0---2-------------

D----0--------------------2p0-----0--------0---------------

A----------------------------------------------------------

E---3----------------------------3-------------------------


Verses

    G                                                C 7/6
                    Cm 7/6
E--------------------------------------------------------------3---------------3-------------------------------------

B-------------1-0--------------------------1-0-------0-----------------0-------------------0-------0-------0---------

G-----0-0h2-0-2-0-0-0h2p0----------0-0h2-0-2-0-2-0-----0---2-------2-------2-------0-----2-----2---------2-----2---0-

D----0--------------------2p0-----0----------------0-----2-------2-------2-------2-----1---------1-----1---------1---

A----------------------------------------------------3-------3-------3-------3-------3-------3-------3-------3-------

E---3----------------------------3-----------------------------------------------------------------------------------


      This is my heart's cry       I want to know the one who saved me             and 
me life      this is my
      This is my heart's cry       much more than just a great desire              it's 
a fire in my I hear my

    G                                             Bm
   Bm/G#             Am2             C2no3
E-------------------------------------------------------------2-----------------------------------------------3-----

B-----------0-1-0------------------------1-0-1-0----------3---------------3-----------------1---------------3---3---

G-----0-0h2-0-2-0-0-0h2p0--------0-0h2-0-2-0-2-0--------4---------4-----4-----4-----4-----4-----4---0-----0-------0-

D----0--------------------2p0---0---------------------4---------4-----2-----------2-----2---------2-----0-----------

A-------------------------------------------------0-2-------2-------------------------0-------0-------3-------------

E---3--------------------------3------------------------------------4-------4---------------------------------------


    heart's cry     to be so close to him that all my life becomes a testimony        of 
         my Savior's grace
    heart cry       each time I think about the cross where Jesus died the cross should 
beem mine but His love broke

Verse 1 ending
    G
E------------------------------------------------0--

B-------------1-0--------------------------1-0------

G-----0-0h2-0-2-0-0-0h2p0----------0-0h2-0-2-0------

D----0--------------------2p0-----0------------0----

A---------------------------------------------------

E---3----------------------------3------------------


     and love     this is my heart's cry

Verse 2 ending
    G
E---------------------------------------------------

B-------------1-0--------------------------1-0------

G-----0-0h2-0-2-0-0-0h2p0----------0-0h2-0-2-0------

D----0--------------------2p0-----0-----------------

A---------------------------------------------------

E---3----------------------------3------------------

                                             (let the last two notes ring)
     through time and heart my heart cry     He heard

                              (Bridge) (This isn't exactly how SCC plays it but it 
okay)

     G              F/A        Bb          F/A(2)            Ab
           Eb/G              F#               Bb/F
E------------------------------------6-----------8-----------------4--------------6-----------------2----------------1---

B-------------1-0---------1--------6---6-------6---6-------------4---4----------4---4-------------2---2------------3---3-

G-----0-0h2-0-2-0-0-----2--------7-----------5-----------------5--------------3-----------------3----------------3-------

D----0----------------3--------------------------------------------------------------------------------------------------

A-------------------0----------------------------------------------------------------------------------------------------

E---3--------------------------6-----------5-----------------4--------------3-----------------2----------------1---------


    my heart cry           now every other hope and dream is lost inside of this one 
to know the one who died for me

           Eb7                      Cm7                  F/A
E------------------3-----------3------------3----------------------

B----------------3---3-------3---3--------4---4--------4-------1---

G--------------3-----------3------------3------------3-------2-----

D------------5-----------5------------5------------5-------3-------

A----------6-----------6------------3------------3-------0---------

E------------------------------------------------------------------


    and to live my life         for Jesus Christ     is  my heart's

    G                                                C 7/6                          Cm 7/6
E--------------------------------------------------------------3---------------3-------------------------------------

B-------------1-0--------------------------1-0-------0-----------------0-------------------0-------0-------0---------

G-----0-0h2-0-2-0-0-0h2p0----------0-0h2-0-2-0-2-0-----0---2-------2-------2-------0-----2-----2---------2-----2---0-

D----0--------------------2p0-----0----------------0-----2-------2-------2-------2-----1---------1-----1---------1---

A----------------------------------------------------3-------3-------3-------3-------3-------3-------3-------3-------

E---3----------------------------3-----------------------------------------------------------------------------------

         (same melody as the verses)
    cry

    G                                             Bm               Bm/G#             Am2 
           C2no3
E-------------------------------------------------------------2-----------------------------------------------3-----

B-----------0-1-0------------------------1-0-1-0----------3---------------3-----------------1---------------3---3---

G-----0-0h2-0-2-0-0-0h2p0--------0-0h2-0-2-0-2-0--------4---------4-----4-----4-----4-----4-----4---0-----0-------0-

D----0--------------------2p0---0---------------------4---------4-----2-----------2-----2---------2-----0-----------

A-------------------------------------------------0-2-------2-------------------------0-------0-------3-------------

E---3--------------------------3------------------------------------4-------4---------------------------------------


                                       so let my life become a     testimony         of  
        my Savior's

    G
E-----------------------------------------------

B-------------1-0----------------------------1--

G-----0-0h2-0-2-0-0-0h2p0----------0-0h2-0---2--

D----0--------------------2p0-----0--------0----

A-----------------------------------------------

E---3----------------------------3--------------


    grace and love                              Oh....

    G                                                C 7/6                          Cm 7/6
E--------------------------------------------------------------3---------------3-------------------1---

B-------------1-0--------------------------1-0-------0-----------------0-------------------0-----------

G-----0-0h2-0-2-0-0-0h2p0----------0-0h2-0-2-0-2-0-----0---2-------2-------2-------0-----2-----2-------

D----0--------------------2p0-----0----------------0-----2-------2-------2-------2-----1---------1-----

A----------------------------------------------------3-------3-------3-------3-------3-------3---------

E---3----------------------------3---------------------------------------------------------------------


     This is my heart's cry          to stand before my Father one day and hear him say  
     well done

              G
E-------------------------------------------------------------------------------------------------

B-----------------------1-0--------------------------1-0--------------------------1-0-------------

G---------------0-0h2-0-2-0-0-0h2p0----------0-0h2-0-2-0-0-0h2p0----------0-0h2-0-2-0-0-0h2p0-----

D--------------0--------------------2p0-----0--------------------2p0-----0--------------------2p0-

A-------------------------------------------------------------------------------------------------

E-------------3----------------------------3----------------------------3-------------------------


   This is my heart's cry


Ending:

E------------------------------------

B---------3-------------------<7>----

G-----0-2---0h2p0---0------<7>---<5>-

D----0------------4-----<7>----------

A------------------------------------

E---3-----------------3--------------

 


/
How To Set Up Higher Praise As Your Home Page
Copyright 1999, Higher Praise HigherPraise,Inc. All rights reserved. Terms of Use

Enjoy A Life Changing Experience

 
 
 
HigherPraise, Higher Praise, HigherPraise, Higher Praise, HigherPraise

Members..Sign Up. LogIn

 
 

Higher Praise Other Sites
 
 

HigherPraise.org/
Praise And Worship
www.higherpraise.org

HigherPraise.net
Christian Resources
www.higherpraise.net

HigherPraiseTube.com
Videos And Audios
www.higherpraisetube.com.


ChristianLyrics.org

Lyrics And Chrords
www.christianlyrics.org

ChristianChordsLyrics

Lyrics And Chrords
www.christianchordslyrics.com

ChristianChordLyrics

Lyrics And Chrords
www.christianchordlyrics.com

WorshipLyrics.org
10.000 Illustrations
www.worshiplyrics.org

WorshipLyrics.net
10.000 Illustrations
www.worshiplyrics.net

PraiseLyrics.com
PowerPoint Lyrics

www.praiselyrics.com

PraiseLyrics.org
PowerPoint Lyrics

www.praiselyrics.org

1GodTube.com
Chistian Videos

www1godtube..com

OneGodTube.com
Chistian Videos

www.onegodtube..com

 

/
Copyright 1999 - 2019, Higher Praise™ HigherPraise™,Inc. All rights reserved. Terms of Use