Collide Album Tabs by Skillet

Higher Praise - Guitar Chords, Lyrics  GuitarTabs -  Praise nad Worship Music And Christian Songs

Higher Praise - Guitar Tabs, Guitar Chords, Lyrics
   Lyrics, Chords And Tabs
   Popular Lyrics Chords Tab
   Power Point Lyrics
   Praise & Worship Music
   Christian Music Videos
   15900 Videos & Audios
   Midi Files
   Worship Questions
   Christmas Chords, Lyrics
   Lyrics, Chords Tabs Rated

Sermon Outlines And Audio Sermons
   9344 Sermon Outlines
   N.T. Sermon Outlines
   O.T. Sermon Outlines
   Special Guest Outlines
   10.000 Illustrations
   Sunday School Studies
   Bible College Studies
   Greatest Preachers
   Bible Research Tools
Audio Sermons
   2895 Audio Sermons
   85 Sermon Videos
   291 Special Guests Serm

   Complete Audio Bible
Higher Praise Sunday School Teaching
   Children's NT Studies
   Children's OT Studies

   98 Children's Midis
   Gospel For Kids Movie
   Children's JESUS Film
Higher Praise Christian Video Library ,Videos
   Christian Television
   TBN TV Live
   15,000 Videos - HP Tube
   712 Youth Music Vids
  Christian Video Library
   Praise Videos #1 & #2
   85 Sermon Videos
   Prophecy Film -Videos
   JESUS Film -Video
   Childrens JESUS Film
   Gospel For Kids Movie
   Passion Of The Christ
   Noah, Sodom, Sinai, Ark
   Tsunami Videos Photos
News And Information
   Testimonies
   Submit Lyrics, Tabs, Serm
   10.000 Illustrations
   Bible College Course
   Clipart & Web Graphics
   Greatest Preachers
   Complete Talking Bible
   Christian Chat Rooms
   Links Church Resource
   HP Statement Of Faith
Download Clipart
   Audio Sermons
   Clipart & Web Graphics
   Church Administration
   Bible Study Software
   Screen Savers Software
   Verse A Day Software
   Educational Games
   Trade Center Photos

   Soft. Search Engine
Higher Praise News
   Current News
    Archived News
   Submit News
   Newsletter   Higher Praise Interact Prayer
   Prayer For All Needs
   
Submit Lyrics, Sermons
   
Contact Higher Praise
   
Advertising 
   Privacy Policy
//
He Died For You,  Click For Answer! This Is Who Jesus Is Video

'
 
0-9 A B C D E F G H I J K L M N O P Q R S T U V W X Y Z
.

//
Click For Printable...Version Of This File
 

Collide Album


by Skillet

Share |



Artist:Skillet
Album: Collide
Released:2004 on Lava Records

Track Listing
1."Forsaken" - 4:12
2."Savior" - 4:33
3."Open Wounds" - 3:15
4."A Little More" - 4:49
5."My Obsession" - 5:00
6."Collide" - 5:38
7."Fingernails" - 5:06
8."Imperfection" - 4:06
9."Under My Skin" - 4:05
10."Energy" - 3:56
11."Cycle Down" - 4:00


These are all tabs I copied off of other websites that other people have tabbed
out. I didn't tab out any but most are as close to accurate as possible. Comment please.


Track 1: "Forsaken"


Drop C Tuning   (CGCFAD)

Intro
C 00-00-0-13p0-0-12--00-00-0-13p0-0-8-----------
          (Pick scrape 2nd time thru)
G 00-00-0-13p0-0-12--00-00-0-13p0-0-8-----------
  (4x)
C 00-00-0-13p0-0-12--00-00-0-13p0-0-8-----------


Verses
C 0-5h7-0-8-8p7       5-5-7-7-

G 0-0-0-0-0-0-0 (3x)  3-3-5-5-

C 0-0-0-0-0-0-0       3-3-5-5-


Pre-chorus
A#, F

Chorus
F --9--
C 0-x-5      10-8-

G 0-7-5 (3x) 10-8-

C 0---5      10-8-


Bridge
F --------------------5-

C 0-0-x-x-x-0-0-x-x-x-x-

G 0-0-x-x-x-0-0-x-x-x-3-

C 0-0-x-x-x-0-0-x-x-x-x-



Track 2: "Savior"

Acoustic (Intro)

e------------------------------

B------------------------------

G-------------------2--3333322-

D--0---2-h-3-p-2--0--0-3333322-

A--0-0----------3------1111100-

D--0---------------------------


e-------------------------------

B-------------------------------

G------------------2------------

D--0--2-h-3-p-2--0--0-3333/5555-

A--0-0---------3------3333/5555-

D--0------------------3333/5555-


e-----------------------------

B-----------------------------

G------------------2--3333322-

D--0---2-h-3-p-2-0--0-3333322-

A--0-0----------3-----1111100-

D--0--------------------------


e-------------------------

B-------------------------

G-----------------2-------

D--0--2-h-3-p-2-0---3---3-

A--0-0---------3----3---3-

D--0----------------3---3-


Electric (Bridge)
e-----------------------------

B-----------------------------

G-----------------------------

D--000-x-00-x-0-x-0-x-0-x-333-
    4x
A--000-x-00-x-0-x-0-x-0-x-333-

D--000-x-00-x-0-x-0-x-0-x-111-


e-----------------------------

B-----------------------------

G-----------------------------

D--000x000x000----------------

A--000x000x000----------------

D--000x000x000----------------


Acoustic (Verse)

e------------------------------

B------------------------------

G-------------------2--3333322-

D--0---2-h-3-p-2--0--0-3333322-

A--0-0----------3------1111100-

D--0---------------------------


e-------------------------------

B-------------------------------

G------------------2------------
      3X
D--0--2-h-3-p-2--0--0-3333/5555-

A--0-0---------3------3333/5555-

D--0------------------3333/5555-


e-----------------------------

B-----------------------------

G------------------2--3333322-

D--0---2-h-3-p-2-0--0-3333322-

A--0-0----------3-----1111100-

D--0--------------------------


e-------------------------

B-------------------------

G-----------------2-------

D--0--2-h-3-p-2-0---3---3-

A--0-0---------3----3---3-

D--0----------------3---3-


Electric (Bridge)

e------------------------

B------------------------

G------------------------

D--000x00x000x00---------

A--000x00x000x00---------

D--000x00x000x00---------


Electric (Chorus)

e--------------------

B--------------------

G--------------------

D--000x000x000x55533-

A--000x000x000x55533-

D--000x000x000x33311-


e-----------------------

B-----------------------

G-----------------------

D--000x000x000x333-555--
  2x
A--000x000x000x333-555--

D--000x000x000x333-555--


e--------------------

B--------------------

G--------------------

D--000x000x000x55533-

A--000x000x000x55533-

D--000x000x000x33311-


e--------------------

B--------------------

G--------------------

D--000x000x000x333220
A--000x000x000x333220
D--000x000x000x333220

Electric (Bridge)
e-----------------------------

B-----------------------------

G-----------------------------

D--000-x-00-x-0-x-0-x-0-x-333-
    4x
A--000-x-00-x-0-x-0-x-0-x-333-

D--000-x-00-x-0-x-0-x-0-x-111-


Acoustic (Verse)

e------------------------------

B------------------------------

G-------------------2--3333322-

D--0---2-h-3-p-2--0--0-3333322-

A--0-0----------3------1111100-

D--0---------------------------


e-------------------------------

B-------------------------------

G------------------2------------

D--0--2-h-3-p-2--0--0-3333/5555-
   3x
A--0-0---------3------3333/5555-

D--0------------------3333/5555-


e-----------------------------

B-----------------------------

G------------------2--3333322-

D--0---2-h-3-p-2-0--0-3333322-

A--0-0----------3-----1111100-

D--0--------------------------


e-------------------------

B-------------------------

G-----------------2-------

D--0--2-h-3-p-2-0---3---3-

A--0-0---------3----3---3-

D--0----------------3---3-


Electric (Bridge)

e--------------------------

B--------------------------

G--------------------------

D--0000x00x0000x00---------

A--0000x00x0000x00---------

D--0000x00x0000x00---------


Electric (Chorus)

e--------------------

B--------------------

G--------------------

D--000x000x000x55533-

A--000x000x000x55533-

D--000x000x000x33311-


e-----------------------

B-----------------------

G-----------------------

D--000x000x000x333-555--
  2x
A--000x000x000x333-555--

D--000x000x000x333-555--


e--------------------

B--------------------

G--------------------

D--000x000x000x55533-

A--000x000x000x55533-

D--000x000x000x33311-


e--------------------

B--------------------

G--------------------

D--000x000x000x333220
A--000x000x000x333220
D--000x000x000x333220

e--------------------

B--------------------

G--------------------

D--000x000x000x55533-

A--000x000x000x55533-

D--000x000x000x33311-


e-----------------------

B-----------------------

G-----------------------

D--000x000x000x333-555--
  2x
A--000x000x000x333-555--

D--000x000x000x333-555--


e--------------------

B--------------------

G--------------------

D--000x000x000x55533-

A--000x000x000x55533-

D--000x000x000x33311-


e--------------------

B--------------------

G--------------------

D--000x000x000x333220
A--000x000x000x333220
D--000x000x000x333220

Solo Section (Background)

e-----------------------------

B-----------------------------

G-----------------------------

D--000-x-00-x-0-x-0-x-0-x-333-
    4x
A--000-x-00-x-0-x-0-x-0-x-333-

D--000-x-00-x-0-x-0-x-0-x-111-


e------------------

B------------------

G--555/33--555/33--
   3x
D--555/33--555/11--

A--333/11--555/11--

D------------------


Acoustic (Verse)

e------------------------------

B------------------------------

G-------------------2--3333322-

D--0---2-h-3-p-2--0--0-3333322-

A--0-0----------3------1111100-

D--0---------------------------


e-------------------------------

B-------------------------------

G------------------2------------

D--0--2-h-3-p-2--0--0-3333/5555-

A--0-0---------3------3333/5555-

D--0------------------3333/5555-


e-----------------------------

B-----------------------------

G------------------2--3333322-

D--0---2-h-3-p-2-0--0-3333322-

A--0-0----------3-----1111100-

D--0--------------------------


e-------------------------

B-------------------------

G-----------------2-------

D--0--2-h-3-p-2-0---3---3-

A--0-0---------3----3---3-

D--0----------------3---3-


Electric (Chorus)

e--------------------

B--------------------

G--------------------

D--000x000x000x55533-

A--000x000x000x55533-

D--000x000x000x33311-


e-----------------------

B-----------------------

G-----------------------

D--000x000x000x333-555--
  2x
A--000x000x000x333-555--

D--000x000x000x333-555--


e--------------------

B--------------------

G--------------------

D--000x000x000x55533-

A--000x000x000x55533-

D--000x000x000x33311-


e--------------------

B--------------------

G--------------------

D--000x000x000x333220
A--000x000x000x333220
D--000x000x000x333220

e--------------------

B--------------------

G--------------------

D--000x000x000x55533-

A--000x000x000x55533-

D--000x000x000x33311-


e-----------------------

B-----------------------

G-----------------------

D--000x000x000x333-555--
  2x
A--000x000x000x333-555--

D--000x000x000x333-555--


e--------------------

B--------------------

G--------------------

D--000x000x000x55533-

A--000x000x000x55533-

D--000x000x000x33311-


e--------------------

B--------------------

G--------------------

D--000x000x000x333220
A--000x000x000x333220
D--000x000x000x333220

Ending

e-----------------------------

B-----------------------------

G-----------------------------

D--000-x-00-x-0-x-0-x-0-x-333-
    4x
A--000-x-00-x-0-x-0-x-0-x-333-

D--000-x-00-x-0-x-0-x-0-x-111-


e-----------------------------

B-----------------------------

G-----------------------------

D--000x000x000----------------

A--000x000x000----------------

D--000x000x000----------------



Track 3: "Open Wounds"

Intro/Verse

A
---------------------

F
-----4---4---4----4--

C
---4----4---4----4---

G
-2-------------------

C
------5----7---2-----



Chorus
C
-9xx-5xx-2-2020-

G
-9xx-5xx-2-2020-

C
-9xx-5xx-2-2020-



Bridge
C
-5-2-9-9--5-2-9-9x--5-2-9-7--2--5-

G
-5-2-9-9--5-2-9-9x--5-2-9-7--2--5-

C
-5-2-9-9--5-2-9-9x--5-2-9-7--2--5-



Ending
C
-9-9xx--9-9xx--9-9-

G
-9-9xx--9-9xx--9-9-

C
-9-9xx--9-9xx--9-9-


Track 4:"A Little More"

Tuning: down one half step (Eb,Ab,Db,Gb,Bb,Eb)

Chords(relative to tuning):

Intro/Verses:
E - B - G#m
E - B - G#m - F#

Pre-Chorus:
E

Chorus:
G#m - E - B - F#/A#
G#m - E - B - C#m
G#m - E - B - F#/A#
G#m - E - G#m - F#

Bridge:
E - B - E - G#m - F#
E - B - C#m - E

Here’s the acoustic part:
Intro/Verses:
Eb ----2------------------------------2----------------------

Bb ----------------------------------------------------------

Gb --------3h4----4p3---4p3-3h4-----------3h4--4---3—6p4-3h4-

Db ---2---4------4-------------------2---4-----6---4---------

Ab --2---2--------------------------2---2------6---4---------

Eb -0-----------4------------------0-----------4---2---------


And here's my attempt at the electric.

Intro/Verses (clean w/ delay timed at eigth notes):

Bb -----------------------------------------------------7p4----14p12--11h12---

Gb -11------6-----6-6-4p3---------6h8-11------6----6-6h8----6-----------------

    / / / / / / / / / / / / / / / /   / / / / / / / / /    /  / / /  /  /    /
    1 & 2 & 3 & 4 & 1 & 2 & 3 & 4 &   1 & 2 & 3 & 4 & 1    &  2 & 3  &  4    &

Pre-Chorus (clean no delay): note - it follows jon's voice

Gb -4-3-1-4--3-4-6-

Chorus Rhythm (distortion): just listen for the rhythm, I'm too lazy to write
it out

Gb ---------4---------------4---6-----------4----------------------

Db -6---2---4---4---6---2---4---6---6---2---4---4---6---2---6---4--

Ab -6---2---2---4---6---2---2---4---6---2---2---4---6---2---6---4--

Eb -4---0-------2---4---0-----------4---0-------2---4---0---4---2--


now, I'm pretty sure that that part does not exist until the "love can take a
little" part. It just sound more full cuz of the bass and the crash cymbal.
Here's the lead part for the chorus.


Gb –---13-11--9h11-11-8p6----11--11-8------13-11--9h11-11-8p6-------------

Db -----------------------------------------------------------6---2---6-4-

Ab ----11-9--------------------9---------------11-9-----------6---2---6-4-

Eb -----------------------------------------------------------4---0---4-2-

   G#m E B F# G#m E  B    C#m G#m E      B         F3G#m E  G#m F#


Bridge (boosted distortion):

Gb -9--8--------9--8--4--4--9--8--------------9-hold--

Db -9--9--11-9--9--9--6--4--9--9--11-9--9s11--9-hold--

Ab -7--7--9--9--7--7--6--4--7--7--9--9--9s11--7-hold--



Track 5: "My Obsession

Intro/Fill 1
D#--------------------------------------------------------------------

A#--------------------------------------------------------------------

F#--------------------------------10-------------------------------9--

C#----0---8p7---0---8p7---00---00-----0---8p7---0---8p7---00---00-----

G#----0---8p7---0---8p7---00---00-----0---8p7---0---8p7---00---00-----

C#----0---8p7---0---8p7---00---00-----0---8p7---0---8p7---00---00-----


Verse
D#--------------------------------------------------------------------

A#--------------------------------------------------------------------

F#--------------------------------------------------------------------

C#----0--0--0-------0--0--0-------0--0--0------------00-00-00-0000----

G#----0--0--0--5p3--0--0--0--5p3--0--0--0-----5p3----00-00-00-0000----

C#----0--0--0-------0--0--0-------0--0--0------------00-00-00-0000----

      PM.....       .......       .......            ........   ..
Pre-Chorus
D#--------------------------------------------------------------------

A#--------------------------------------------------------------------

F#--------------------------------------------------------------------

C#----5-5-5-555------8-8-8-888------0-0-0-000------3-3-3-333----------

G#----5-5-5-555------8-8-8-888------0-0-0-000------3-3-3-333----------

C#----5-5-5-555------8-8-8-888------0-0-0-000------3-3-3-333----------


Chorus
D#--------------------------------------------------------------------

A#--------------------------------------------------------------------

F#--------------------------------------------------------------------

C#----0--00--8-8--0--00--8-10--0--00--8-8---55555---888888------------

G#----0--00--8-8--0--00--8-10--0--00--8-8---55555---888888------------

C#----0--00--8-8--0--00--8-10--0--00--8-8---55555---888888------------


Fill 2
D#--------------------------------------------------------------------

A#--------------------------------------------------------------------

F#--------------------------------------------------------------------

C#----0--0--3--3--0--0--3--3--0-----0--0--3--3--0--0--3--3--0---------

G#----0--0--3--3--0--0--3--3--0-----0--0--3--3--0--0--3--3--0---------

C#----0--0--3--3--0--0--3--3--0-----0--0--3--3--0--0--3--3--0---------

     PM........................................................
Bridge part 1
G#--------------------------------8-----------------------------7-----

C#----0-7-8-7-0-8-7-0-8-7-0-8-7-0---0-7-8-7-0-8-7-0-8-7-0-8-7-0-------

     PM..........................   ...........................
Bridge part 2 (probably the coolest part in the song)
D#--------------------------------------------------------------------------

A#--------------------------------------------------------------------------

F#----------------------------------55-7-------------------------------5XXX-

C#----5h7-0-3h5-3-33-5--5h7-0-3h5-3-55-7-5h7-0-3h5-3-33-5--5h7-0-3h5-3-5XXX-

G#----5h7-0-3h5-3-33-5--5h7-0-3h5-3-33-5-5h7-0-3h5-3-33-5--5h7-0-3h5-3-3XXX-

C#----5h7-0-3h5-3-33-5--5h7-0-3h5-3------5h7-0-3h5-3-33-5--5h7-0-3h5-3------


The breakdown
Intro/fill 1  x4
Verse         x4
Pre-chorus    x1.5 haha
Chorus        x2
Intro/fill 1  x2
Verse         x4
Pre-chorus    x1.5
Chorus        x2
Fill 2        x2
Bridge 1      x4
Bridge 2      x4
Pre-chorus    x3.5
Fill 2        x1
Chorus        x4
Intro/fill 1  x4


Track 6: "Collide"

Drop Db (Db,Ab,Db,Gb,Bb,Eb)

Intro: Strings, synths, etc., then
Gtr 1
Db 0-8-3-2---0-8-3-5-

Ab 0-8-3-2---0-8-3-5-

Db 0-8-3-2---0-8-3-5-

Lead Part
Eb 10-13-12-10----13-12--------13-12------13-12---15-

Bb--------------11------11---13-----13--13-----13----


Verse:
Gb --0-------0--------0----------0-------

Db -7--8p7--7--8p7---7--8p7---3-2----5-7-

Ab --------------------------3----3/5----

Db 5--5----8--8----0---0----3------------


Chorus- Same as guitar 1 on intro (0,8,3,2, etc.)

Bridge
Db 3-0-0-0-3-0-0-0-0-0-3-0-0-0-3-0-0-0-3---

Ab 0-0-0-0-0-0-0-0-0-0-0-0-0-0-0-0-0-0-0-5-
b
Db 0-0-0-0-0-0-0-0-0-0-0-0-0-0-0-0-0-0-0-0-

    PM----   PM-------   PM---  PM---------



Track 7: "Fingernails"

Drop C (CGCFAD)

Intro/Verse    (PM on verse)

F ------8--------5-------------------------------------------------

C 0-0-0-x--0-0-0-x                    (Just before Chorus) 3-0-0-0-

G 0-0-0-6--0-0-0-3                                         3-0-0-0-

C 0-0-0----0-0-0--                                         3-0-0-0-


C 0-1-8-5--0-1-5-0--0-1-8-5--0-1-8--0-1-8-

G 0-1-8-5--0-1-5-0--0-1-8-5--0-1-8--0-1-8-

C 0-1-8-5--0-1-5-0--0-1-8-5--0-1-8--0-1-8-


Pre-verse
F -------------------11-11                            19~-

C x-x-x-x-0-x-x-x-x-0-x-x        (Last time in song)-  x~-

G x-x-x-x-0-x-x-x-x-0-9-9                             17~-

C x-x-x-x-0-x-x-x-x-0-x-x---------------------------------



Sorry, didn't get the bridge part. Here's the order.

Intro riff
Verse
Chorus
Pre-verse riff
Intro riff
Verse
Chorus
Bridge
Pre-verse riff
Chorus
Pre-verse riff
Intro riff
End on open C


Track 8: "Imperfection"

Intro/Verse
  Gtr1

----------------------
---------------------


o---------------------
---------------------


----------------------
---------------------


--5-5-5-x-3-3-x-6-x-x-
-5-5-5-x-3-3-x-6-x-x-


o-3-3-3-x-3-3-x-3-x-x-
-3-3-3-x-3-3-x-3-x-x-


--3-3-3-x-3-3-x-3-x-x-
-3-3-3-x-3-3-x-3-x-x-


                                               3x

---------------------
------------------------


---------------------
-----------------------o


---------------------
------------------------


-5-5-5-x-3-3-x-6-x-x-
-5-5-5-x-3-3-x-6-x-x----


-4-4-4-x-4-4-x-4-x-x-
-4-4-4-x-4-4-x-4-x-x---o


-6-6-6-x-6-6-x-6-x-x-
-6-6-6-x-6-6-x-6-x-x----



Prechorus:
 Gtr1

--------------------------
---------------------

--------------------------
---------------------

--------------------------
---------------------

--6-6-6-x--6-6-x---6--x-x-
-5-5-5-x-5-5-x-5-x-x-

--6-6-6-x--6-6-x---6--x-x-
-6-6-6-x-6-6-x-6-x-x-

--6-6-6-x--6-6-x---6--x-x-
-5-5-5-x-5-5-x-5-x-x-



 Gtr2

--------------------------
---------------------

--------------------------
---------------------

-13-------12-----(12)-----
-8-------------------

--------------------------
---------------------

-11-------10-----(10)-----
-6-------------------

--------------------------
---------------------


   Gtr1

--------------------------
------------------

--------------------------
------------------

--------------------------
------------------

--6-6-6-x--6-6-x---6--x-x-
--6-6-6-6-3-3-3-3-

--4-4-4-x--4-4-x---4--x-x-
--4-4-4-4-3-3-3-3-

--3-3-3-x--3-3-x---3--x-x-
--3-3-3-3-3-3-3-3-

 
 Gtr2

--------------------------
------------------

--------------------------
------------------

-13-------12-----(12)-----
-10---------------

--------------------------
------------------

-11-------10-----(10)-----
--8---------------

--------------------------
------------------



CHORUS:

    Gtr I/2

--------------------------
------------------------


o-------------------------
------------------------


-----------------5-5-5-5--
-5-6-6-6-5-6-6-6--------


--3-3-3-1-6-5-3--5-5-5-5--
-5-6-6-6-5-6-6-6-1-1-1--


o-3-3-3-1-6-5-3--3-3-3-3--
-3-4-4-4-3-4-4-4-1-1-1--


--3-3-3-1-6-5-3-----------
-----------------1-1-1--




--------------------------------
------------------------------------


--------------------------------
-----------------------------------o


--------------------------------
------------------------------------


-3-3-3-1-6-5-3--10-10-10-10-10--
-10-11-11-11-11-11-11-10-8-6-8-6-5--


-3-3-3-1-6-5-3--10-10-10-10-10--
-10-11-11-11-11-11-11-10-8-6-8-6-5-o


-3-3-3-1-6-5-3--10-10-10-10-10--
-10-11-11-11-11-11-11-10-8-6-8-6-5--



---------------------------------
-----------------------------------


o--------------------------------
----------------------------------o


------------10-10-10-8-8-5-5-8\--
-----------10-10-10-8-8-8-13-12\---


--3-3-x-3-3----------------------
-3-3-x-3-3-------------------------


o-3-3-x-3-3--8--8--8-6-6-3-3-6\--
-3-3-x-3-3--8--8--8-6-6-6-11-10\--o


--3-3-x-3-3----------------------
-3-3-x-3-3-------------------------


Track 9: "Under My Skin"

Intro
E----------------------------------------------------------

B---------2-------------2--------------2-------------2-----

G---1-3-1---1-1---1-3-1---1-1----1-3-1---1-1---1-3-1---1-1-

D----------------------------------------------------------

A----------------------------------------------------------
 x2
E-2-------------4--------------6-------------2-------------


Verse
E----------------------------------------------------------

B---------2-------------2--------------2-------------2-----

G---1-3-1---1-1---1-3-1---1-1----1-3-1---1-1---1-3-1---1-1-

D----------------------------------------------------------

A----------------------------------------------------------
 x4
E-2-------------4--------------6-------------2-------------


Chorus
G---------------8-------

D-4--6--8----4--8--8----

A-4--6--8----4--6--8----
 x3
E-2--4--6----2--6--6----


Verse

Chorus 2
G---------------8-------

D-4--6--8----4--8--8----

A-4--6--8----4--6--8----
 x4
E-2--4--6----2--6--6----


Bridge
(Piano)

Chorus 3
G---------------8-------

D-4--6--8----4--8--8----

A-4--6--8----4--6--8----
 x4
E-2--4--6----2--6--6----




Track 10: "Energy"

Intro
E----------------------------------------------------------------------

B----------------------------------------------------------------------

G---------------777-------------444--------------777-------------444---

D--0-0-6650-00-7555--0-6650-00-5222-0-0-6650-00-7555--0-6650-00-5222---

A--0-0-6650-00-7555--0-6650-00-5222-0-0-6650-00-5-----0-6650-00-3------

D--0-0-6650-00-------0-6650-00------0-0-6650-00-------0-6650-00--------


  Verse 1
-----------------------------------------------------------------------

-----------------------------------------------------------------------

-----------------------------------------------------------------------

0---xx---555533330---xx---555533330---xx---555533330---xx--------------
 (2x)
0---xx---333311110---xx---333311110---xx---333311110---xx---33331111---

0---xx--0--------0---xx--0--------0---xx--0--------0---xx--0-----------


  Pre-Chorus
------------------------

------------------------

------------------------

------------------------

2-22353---------5535665-

2-22353---------5535665-


  Chorus
-----------------------------------------------------------------

-----------------------------------------------------------------

--------------------------------5/7-7----------------------------

0--0xx3---------8--8xx5---------5/7-7xx3---------8--8xx5---------
  (2x)
0--0xx3---------8--8xx5---------3/5-5xx3---------8--8xx5---------

0--0xx3---------8--8xx5--------------xx3---------8--8xx5---------


  Play intro again
--------------------------------------------------------------------

--------------------------------------------------------------------

-------------777-------------444--------------777-------------444---

0-0-6650-00-7555--0-6650-00-5222-0-0-6650-00-7555--0-6650-00-5222---

0-0-6650-00-5-----0-6650-00-3----0-0-6650-00-5-----0-6650-00-3------

0-0-6650-00-------0-6650-00------0-0-6650-00-------0-6650-00--------


  Verse 2
-----------------------------------------------------------------------

-----------------------------------------------------------------------

-----------------------------------------------------------------------

0---xx---555533330---xx---555533330---xx---555533330---xx--------------
 (2x)
0---xx---333311110---xx---333311110---xx---333311110---xx---33331111---

0---xx--0--------0---xx--0--------0---xx--0--------0---xx--0-----------


  Pre-Chorus
------------------------

------------------------

------------------------

------------------------

2-22353---------5535665-

2-22353---------5535665-


  Chorus
-----------------------------------------------------------------

-----------------------------------------------------------------

--------------------------------5/7-7----------------------------

0--0xx3---------8--8xx5---------5/7-7xx3---------8--8xx5---------
  (2x)
0--0xx3---------8--8xx5---------3/5-5xx3---------8--8xx5---------

0--0xx3---------8--8xx5--------------xx3---------8--8xx5---------


  Bridge
x--------------------------------                -----------------

x--------------------------------                -----------------

x--------------------------------                -----------------

0--------------------------------                -----------------
  (4x)
x--------------------------------                -----------------

0--------------------------------                6665553333333333-



----------------                 ---------------------------------

----------------                 ---------------------------------

----------------                 ---------------------------------

----------------  (4x)           ---------------------------------
  (2x)
------------3665                 ------------5/\6------------5/\6-

6665553333333---                 6-x5-x3---------6-x5-x3----------



--------------------------------    ---------------------------------

--------------------------------    ---------------------------------

-----------------------------444    -------------777-------------444-

------------5555------------5222    0-0-6650-00-7555x-0-6650-00-5222-
  (3x)
----------------------------3---    0-0-6650-00-5---x-0-6650-00-3----

0-0-6650-00-----0-0-6650-00-----    0-0-6650-00-----x-0-6650-00------


  Verse 1 (Same words but less guitar)
--------------------------------------------------------

--------------------------------------------------------

--------------------------------------------------------

----------------0---------------0---------------0-------

--------3---1-----------3---1-----------3---1-----------

0---xx-0------------xx-0------------xx-0----------------


  Chorus
-----------------------------------------------------------------

-----------------------------------------------------------------

--------------------------------5/7-7----------------------------

0--0xx3---------8--8xx5---------5/7-7xx3---------8--8xx5---------
  (4x)
0--0xx3---------8--8xx5---------3/5-5xx3---------8--8xx5---------

0--0xx3---------8--8xx5--------------xx3---------8--8xx5---------


  Intro
---------------------------------

---------------------------------

-------------777-------------444-

0-0-6650-00-7555--0-6650-00-5222-

0-0-6650-00-7555--0-6650-00-5222-

0-0-6650-00-------0-6650-00------


Track 11: "Cycle Down"

Intro 1
F#-7-7-----9-9-----10-10-----10-10-7-7-9-9-5-    ---

C#-7-7-0-0-9-9-0-0-10-10-0-0-----------------    -0-

G#-5-5-0-0-7-7-0-0--8--8-0-0----------------- x4 -0-

C#-----0-0-----0-0-------0-0-----------------    -0-


Intro 2
C#---0-----3---5--

G#--0-----3---5---
 x2
C#-0-----3---5----


Verse
C#---0-----3---5--

G#--0-----3---5---
 x8
C#-0-----3---5----


Chorus
F#--------------------------5---

C#-0---3--5--8----0---3--5--5---

G#-0---3--5--8----0---3--5--3---
 x2
C#-0---3--5--8----0---3--5------


Intro 1
F#-7-7-----9-9-----10-10-----10-10-7-7-9-9-5-

C#-7-7-0-0-9-9-0-0-10-10-0-0-----------------

G#-5-5-0-0-7-7-0-0--8--8-0-0-----------------
 x2
C#-----0-0-----0-0-------0-0-----------------


Verse

Chorus 2
F#--------------------------5---

C#-0---3--5--8----0---3--5--5---

G#-0---3--5--8----0---3--5--3---
 x4
C#-0---3--5--8----0---3--5------


Bridge
C#-8-8--8-8--8--8-8--8-8--8--0-0--0-0--0--0-0--0-0--0-

G#-8-8--8-8--8--8-8--8-8--8--0-0--0-0--0--0-0--0-0--0-
 x2
C#-8-8--8-8--8--8-8--8-8--8--0-0--0-0--0--0-0--0-0--0-


Chorus 2

Outro
F#-7-7-----9-9-----10-10-----10-10-7-7-9-9-5-

C#-7-7-0-0-9-9-0-0-10-10-0-0-----------------

G#-5-5-0-0-7-7-0-0--8--8-0-0-----------------
 x4
C#-----0-0-----0-0-------0-0-----------------



 


/
How To Set Up Higher Praise As Your Home Page
Copyright 1999, Higher Praise HigherPraise,Inc. All rights reserved. Terms of Use

Enjoy A Life Changing Experience

 
 
 
HigherPraise, Higher Praise, HigherPraise, Higher Praise, HigherPraise

Members..Sign Up. LogIn

 
 

Higher Praise Other Sites
 
 

HigherPraise.org/
Praise And Worship
www.higherpraise.org

HigherPraise.net
Christian Resources
www.higherpraise.net

HigherPraiseTube.com
Videos And Audios
www.higherpraisetube.com.


ChristianLyrics.org

Lyrics And Chrords
www.christianlyrics.org

ChristianChordsLyrics

Lyrics And Chrords
www.christianchordslyrics.com

ChristianChordLyrics

Lyrics And Chrords
www.christianchordlyrics.com

WorshipLyrics.org
10.000 Illustrations
www.worshiplyrics.org

WorshipLyrics.net
10.000 Illustrations
www.worshiplyrics.net

PraiseLyrics.com
PowerPoint Lyrics

www.praiselyrics.com

PraiseLyrics.org
PowerPoint Lyrics

www.praiselyrics.org

1GodTube.com
Chistian Videos

www1godtube..com

OneGodTube.com
Chistian Videos

www.onegodtube..com

 

/
© Copyright 1999 - 2019, Higher Praise™ HigherPraise™,Inc. All rights reserved. Terms of Use