Kathys Song Tabs by Simon And Garfunkel

Higher Praise - Guitar Chords, Lyrics  GuitarTabs -  Praise nad Worship Music And Christian Songs

Higher Praise - Guitar Tabs, Guitar Chords, Lyrics
   Lyrics, Chords And Tabs
   Popular Lyrics Chords Tab
   Power Point Lyrics
   Praise & Worship Music
   Christian Music Videos
   15900 Videos & Audios
   Midi Files
   Worship Questions
   Christmas Chords, Lyrics
   Lyrics, Chords Tabs Rated

Sermon Outlines And Audio Sermons
   9344 Sermon Outlines
   N.T. Sermon Outlines
   O.T. Sermon Outlines
   Special Guest Outlines
   10.000 Illustrations
   Sunday School Studies
   Bible College Studies
   Greatest Preachers
   Bible Research Tools
Audio Sermons
   2895 Audio Sermons
   85 Sermon Videos
   291 Special Guests Serm

   Complete Audio Bible
Higher Praise Sunday School Teaching
   Children's NT Studies
   Children's OT Studies

   98 Children's Midis
   Gospel For Kids Movie
   Children's JESUS Film
Higher Praise Christian Video Library ,Videos
   Christian Television
   TBN TV Live
   15,000 Videos - HP Tube
   712 Youth Music Vids
  Christian Video Library
   Praise Videos #1 & #2
   85 Sermon Videos
   Prophecy Film -Videos
   JESUS Film -Video
   Childrens JESUS Film
   Gospel For Kids Movie
   Passion Of The Christ
   Noah, Sodom, Sinai, Ark
   Tsunami Videos Photos
News And Information
   Testimonies
   Submit Lyrics, Tabs, Serm
   10.000 Illustrations
   Bible College Course
   Clipart & Web Graphics
   Greatest Preachers
   Complete Talking Bible
   Christian Chat Rooms
   Links Church Resource
   HP Statement Of Faith
Download Clipart
   Audio Sermons
   Clipart & Web Graphics
   Church Administration
   Bible Study Software
   Screen Savers Software
   Verse A Day Software
   Educational Games
   Trade Center Photos

   Soft. Search Engine
Higher Praise News
   Current News
    Archived News
   Submit News
   Newsletter   Higher Praise Interact Prayer
   Prayer For All Needs
   
Submit Lyrics, Sermons
   
Contact Higher Praise
   
Advertising 
   Privacy Policy
//
He Died For You,  Click For Answer! This Is Who Jesus Is Video

'
 
0-9 A B C D E F G H I J K L M N O P Q R S T U V W X Y Z
.

//
Click For Printable...Version Of This File
 

Kathys Song


by Simon And Garfunkel

Share |



#----------------------------------PLEASE NOTE---------------------------------#
#This file is the author's own work and represents their interpretation of the #
#song. You may only use this file for private study, scholarship, or research. #
#------------------------------------------------------------------------------##
#

This is my version of this wonderfully gorgeous song since I don?t like the version in the guitar book.  I 
it?s more accurate to what the artist is really playing, so tell me what YOU think.


Kathy?s Song (as heard on ?Greatest Hits?)

Words/Music by Paul Simon
Tablature by John Nimis


Intro: (and filler between verses)

  G	 C/G		G
E -----H-------P--
----------------

B ----0-1---1---0-
--0-------0-----

G ----------------
------0-------0-
  Repeat several times...
D ----0-2-----2-0-
----0-------0---

A ----------------
----------------

E 3---+---+---+---
3---+---3---+---


Verses:

	G		C/G		C/G		G
E ----------------
----------------
----------------
----------------

B --0-------0-----
--1-------1-----
--1-------1-----
----0-----0-----

G ------0-------0-
------0-------0-
------0-------0-
--------------0-

D ----0-------0---
----2-------2---
----2-------2---
----0-------0---

A ----------------
----------------
----------------
----------------

E 3---+---3---+---
3---+---3---+---
3---+---3---+---
3---+---3---+---


			Am		   Gsus		C/F#
E ----------------
----------0-----
----------------
--0-------0-----

B --0-------0-----
--1-----------1-
--1-------1-----
------1-------1-

G ------0-------0-
------2-----2---
------0-------0-
----0-------0---

D ----0-------0---
----2-----------
----0-------0---
----------------

A ----------------
0-------0-------
----------------
----------------

E 3---+---3---+---
+---+---+---+---
3---+---3---+---
2---+---2---+---


	D7/F#				G		D/F#
E --2-------2-----
--2-------2-----
----------------
----------------

B ------1-------1-
------1-------1-
--3-------3-----
--3-------3-----

G ----2-------2---
----2-------2---
------0-------0-
------2-------2-

D ----------------
----------------
----0-------0---
----0-------0---

A ----------------
----------------
----------------
----------------

E 2---+---2---+---
2---+---2---+---
3---+---3---+---
2---+---2---+---


	G		C		Am		Gsus
E ----------------
----------------
----------------
----------------

B --3-------------
--1-------1-----
--1-------1-----
--1-------1-----

G ------0---------
------0-------0-
------2-------2-
------0-------0-

D ----0-----------
----2-------2---
----2-------2---
----0-------0---

A --------0---2---
3---------------
0-------0-------
----------------

E 3---+---+---+---
+---+---3---+---
+---+---+---+---
3---+---3---+---


	D		G
E --2-------2-----
-----H-------P--

B ------3-------3-
----0-1---1---0-

G ----2-------2---
----------------

D 0-------0-------
----0-2-----2-0-

A ----------------
----------------

E +---+---+---+---
3---+---+---+---



After the second and fourth verses he does this Dsus thing:

	G	C	Dsus				C
E ----------------
----------------
----------------
----------------

B --0-------1-----
--3-------3-----
--3-------3-----
----1-----1-----

G ------0-------0-
------0-------0-
------0-------0-
--------------0-

D ----0-------2---
----4-------4---
----4-------4---
----2-------2---

A ----------------
----------------
----------------
----------------

E 3---+---3---+---
5---+---5---+---
5---+---5---+---
3---+---3---+---


And then right back to the filler/intro lick.

Words: (the chords are the same as the first verse for all verses except the end of the second - D/C/G 
of Gsus/D/G)

G		C		G	     Am    Gsus   C/F#   D7/F#
I hear the drizzle of the rain,       like a memory it falls
G	  D/F#     G     C		  Am      Gsus   D	    G
Soft and warm, continuing		 tapping on my roof and walls

G		C		G	    Am	Gsus	  C/F#    D7/F#
And from the shelter of my mind,     Through the window of my eyes
G	D/F#		G		C	   Am	  D		    C      G
I gaze beyond the rain-drenched streets,    To England where my heart lies

(Here?s where it goes to Dsus)

My mind?s distracted and diffused,     my thoughts are many miles away

They lie with you when you?re asleep,	 and kiss you when you start your day


And a song I was writing is left undone	    I don?t know why I spend my time

Writing songs I can?t believe     With words that tear and strain to rhyme

(Back to Dsus)

And so you see I have come to doubt	  All that I once held as true

I stand alone without beliefs		The only truth I know is you


And as I watch the drops of rain		Weave their weary paths and die

I know that I am like the rain		There but for the grace of you go I

(Really cool guitar solo verse, which I may tab later...)

Note:  At the end of the third line of each verse, there is a walkup from G to C that Paul Simon loves to 
(Homeward Bound, Boxer, etc...) and he alternates from the single note walk I put in the tab at that spot 
a more common (and cooler) walkup:

E ----------------
0---------------
----------------
----------------

B ----0---1---3---
----------1-----
----------------
----------------

G ----------------
------0-------0-
---etc...-------
----------------

D ----------------
----2-------2---
----------------
----------------

A --------0---2---
3---------------
----------------
----------------

E 3---3---+---+---
+---+---3---+---
+---+---+---+---
+---+---+---+---


Ah, sweet poetry... Love and beauty to all,

	John H. Nimis

	Macalester College
	St. Paul, MN

Date: Mon, 24 Feb 1997 01:29:48 +0100 (MET)



Kathy's Song

Words/Music by Paul Simon
Tablature by Frederik Esser

This tab is developed from the one by John Nimis. I don't claim it to be
better, but it's certainly a lot closer to the recorded version (on sound of
silence).

Intro:

E ----------0-----
----------0-----
----------0-----
----------0-----

B ----------------
----------------
----------------
----------------

G ----0-------0---
----0-------0---
----0-------0---
----0-----------

D 4-------4-------
4-------4-------
4-------4-------
4-------4-\-2---

A ----------------
----------------
----------------
----------------

E +---+---+---+---
+---+---+---+---
+---+---+---+---
+---+---+---+---


  G	 C/G		G           G     C/G		G
E ----------------
----------------
----------------
----------------

B ----0h1---1--p0-
----0-----0-----
--0--h1---1--p0-
----0-----0-----

G ----------------
------0---------
------0---------
------0---------

D ----0h2-----2p0-
----0-------0---
----0h2-----2p0-
----0-------0---

A ----------------
----------------
----------------
----------------

E 3---+---3---+---
3---+---3---+---
3---+---3---+---
3---+---3---+---


Verses:

  G	           C/G              C/G              G
E -(3)-----(3)----
----------------
----------------
----------------

B --0-------0-----
--1-------1-----
--1-------1-----
0---------0-----

G ------0-------0-
------0-------0-
------0-------0-
------0---------

D ----0-------0---
----2-------2---
----2-------2---
----0-------0---

A ----------------
----------------
----------------
----------------

E 3---+---3---+---
3---+---3---+---
3---+---3---+---
3---+---3---+---

      I hear the   drizzle          of          the rain,

                   Am               Am/G    G        C       /B  /C
E 3---------------
----------------
----------------
----------------

B ----------0-----
1---------1-----
0---------0-----
1---------------

G ------0---------
------2-----2---
------2---------
------0---------

D ----0-------0---
----2-----------
----2-------0---
----2----(0)----

A ----------------
0-------0-------
----------------
3-------2---3---

E 3---+---3---+---
+---+---+---+---
3---+---3---+---
----+-------+---

                           like a   me-     mo-      ry      it  falls,

  D/F#                              G                Bm/F#
E ----------------
2---------------
----------------
----------------

B 3---------3-----
----------3-----
--3-------3-----
3---------3-----

G ------2---------
------2---------
------4---------
------4---------

D ----0-------0---
----0-------0---
----5-------5---
----4-------4---

A ----------------
----------------
----------------
----------------

E 2---+---2---+---
2---+---2---+---
3---+---3---+---
2---+---2---+---

                                            soft and warm,       con-

  G                C                                 Am
E ----------------
----------------
0---------------
----------------

B ---(0)----------
1---------1-----
----------1-----
1---------1-----

G ----0-----------
------0---------
------0-------0-
------2-------2-

D ----0-----------
----2-------2---
----2-------2---
----2-------2---

A --------0---2---
3-------3-------
3-------3-------
0-------0-------

E 3---+---+---+---
+---+---+---+---
+---+---+---+---
+---+---+---+---

  ti-     nu- ing,                                           tapping

  Am/G             D                G       C/G       G       C/G   ad lib
E ----------------
------2---------
----------------
----------------

B 0---------0-----
----------3-----
----------1-----
0---------1-----

G ------2---------
----2-------2---
------0---------
.-----0--------.

D ----2-------2---
0---------------
----0h2-----2---
.---0h2-----2--.

A ----------------
----------------
----------------
----------------

E 3---+---3---+---
+---+---+---+---
3---+---3---+---
3---+---3---+---

  on      my       roof  and        walls.
(omit this bar in
 the 2nd verse    )


Bridge:

  G       C/G      Dsus
E ----------------
----------------
5---------------
----------------

B 0---------1-----
3---------3-----
----------3-----
3---------3-----

G ------0---------
------0---------
------0---------
------0---------

D ----0h2-----2---
----4-------4---
----4-------4---
----4-------4---

A ----------------
----------------
----------------
----------------

E 3---+---3---+---
5---+---5---+---
5---+---5---+---
5---+---5---+---


                   G       C/G       G       C/G   ad lib
E ----------------
----------------
----------------

B 3---------3-----
----------1-----
0---------1-----

G ------0---------
------0---------
.-----0--------.

D ----4-------4---
----0h2-----2---
.---0h2-----2--.

A ----------------
----------------
----------------

E 5---+---5---+---
3---+---3---+---
3---+---3---+---



Lyrics:

(intro)

I hear the drizzle of the rain,
like a memory it falls,
soft and warm, continuing,
tapping on my roof and walls.

And from the shelter of my mind,
through the window of my eyes
I gaze beyond the rain-drenched streets,
to England where my heart lies.

(bridge)

My mind's distracted and diffused,
my thoughts are many miles away.
They lie with you when you're asleep,
and kiss you when you start your day.

And a song I was writing is left undone.
I don't know why I spend my time
writing songs I can't believe
with words that tear and strain to rhyme.

(bridge)

And so you see I have come to doubt
all that I once held as true.
I stand alone without beliefs.
The only truth I know is you.

And as I watch the drops of rain
weave their weary paths and die
I know that I am like the rain.
There but for the grace of you go I.

(solo verse)

--
============================================================================
Frederik Esser                      \/   Just because you're paranoid


 


/
How To Set Up Higher Praise As Your Home Page
Copyright 1999, Higher Praise HigherPraise,Inc. All rights reserved. Terms of Use

Enjoy A Life Changing Experience

 
 
 
HigherPraise, Higher Praise, HigherPraise, Higher Praise, HigherPraise

Members..Sign Up. LogIn

 
 

Higher Praise Other Sites
 
 

HigherPraise.org/
Praise And Worship
www.higherpraise.org

HigherPraise.net
Christian Resources
www.higherpraise.net

HigherPraiseTube.com
Videos And Audios
www.higherpraisetube.com.


ChristianLyrics.org

Lyrics And Chrords
www.christianlyrics.org

ChristianChordsLyrics

Lyrics And Chrords
www.christianchordslyrics.com

ChristianChordLyrics

Lyrics And Chrords
www.christianchordlyrics.com

WorshipLyrics.org
10.000 Illustrations
www.worshiplyrics.org

WorshipLyrics.net
10.000 Illustrations
www.worshiplyrics.net

PraiseLyrics.com
PowerPoint Lyrics

www.praiselyrics.com

PraiseLyrics.org
PowerPoint Lyrics

www.praiselyrics.org

1GodTube.com
Chistian Videos

www1godtube..com

OneGodTube.com
Chistian Videos

www.onegodtube..com

 

/
Copyright 1999 - 2019, Higher Praise™ HigherPraise™,Inc. All rights reserved. Terms of Use