Chapstick Chapped Lips And Things Like Chemistry Tabs by Relient K

Higher Praise - Guitar Chords, Lyrics  GuitarTabs -  Praise nad Worship Music And Christian Songs

Higher Praise - Guitar Tabs, Guitar Chords, Lyrics
   Lyrics, Chords And Tabs
   Popular Lyrics Chords Tab
   Power Point Lyrics
   Praise & Worship Music
   Christian Music Videos
   15900 Videos & Audios
   Midi Files
   Worship Questions
   Christmas Chords, Lyrics
   Lyrics, Chords Tabs Rated

Sermon Outlines And Audio Sermons
   9344 Sermon Outlines
   N.T. Sermon Outlines
   O.T. Sermon Outlines
   Special Guest Outlines
   10.000 Illustrations
   Sunday School Studies
   Bible College Studies
   Greatest Preachers
   Bible Research Tools
Audio Sermons
   2895 Audio Sermons
   85 Sermon Videos
   291 Special Guests Serm

   Complete Audio Bible
Higher Praise Sunday School Teaching
   Children's NT Studies
   Children's OT Studies

   98 Children's Midis
   Gospel For Kids Movie
   Children's JESUS Film
Higher Praise Christian Video Library ,Videos
   Christian Television
   TBN TV Live
   15,000 Videos - HP Tube
   712 Youth Music Vids
  Christian Video Library
   Praise Videos #1 & #2
   85 Sermon Videos
   Prophecy Film -Videos
   JESUS Film -Video
   Childrens JESUS Film
   Gospel For Kids Movie
   Passion Of The Christ
   Noah, Sodom, Sinai, Ark
   Tsunami Videos Photos
News And Information
   Testimonies
   Submit Lyrics, Tabs, Serm
   10.000 Illustrations
   Bible College Course
   Clipart & Web Graphics
   Greatest Preachers
   Complete Talking Bible
   Christian Chat Rooms
   Links Church Resource
   HP Statement Of Faith
Download Clipart
   Audio Sermons
   Clipart & Web Graphics
   Church Administration
   Bible Study Software
   Screen Savers Software
   Verse A Day Software
   Educational Games
   Trade Center Photos

   Soft. Search Engine
Higher Praise News
   Current News
    Archived News
   Submit News
   Newsletter   Higher Praise Interact Prayer
   Prayer For All Needs
   
Submit Lyrics, Sermons
   
Contact Higher Praise
   
Advertising 
   Privacy Policy
//
He Died For You,  Click For Answer! This Is Who Jesus Is Video

'
 
0-9 A B C D E F G H I J K L M N O P Q R S T U V W X Y Z
.

//
Click For Printable...Version Of This File
 

Chapstick Chapped Lips And Things Like Chemistry


by Relient K

Share |



Song: chapstick, chapped lips, and things like chemistry
Artist: relient k
Album: Two Lefts Don't Make a Right...but Three Do


 -------------------

Legend:            

 x = palm mute     

 ! = cut-off       

 / = slide up      

 \ = slide down    

 ~ = let ring      

 -------------------


Intro (Lead Only): play 2x
e
------------------------------

B
-7-77-77--7777--7-77-77--7777-

G
-4-44-44--4444--4-44-44--4444-

D
------------------------------

A
------------------------------

E
------------------------------



Verse One Rhythm: play 1x - use same strumming as Lead until last E5
e
------------------------------

B
------------------------------

G
-4--3--------4--3-------------

D
-4--4--6--2--4--4--6--2-2-xxx-

A
-2--1--6--2--2--1--6--2-2-xxx-

E
-------4--0--------4--0-0-xxx-


Verse One Lead: play 4x - end  with  this
e
------------------------------
  
------

B
-7-77-77--7777--7-77-77--7777-
  
-xxxx-

G
-4-44-44--4444--4-44-44--4444-
  
-xxxx-

D
------------------------------
  
------

A
------------------------------
  
------

E
------------------------------
  
------



Pre-Chorus (Rhythm Only): play 2x - 2nd time cut off before last F#5
e
---------------------------------------------

B
---------------------------------------------

G
-------------4-------------------------------

D
-6---4---2---4---2-22-22--2222--2-22-22--4-4-

A
-6---4---2---2---2-22-22--2222--2-22-22--4-4-

E
-4---2---0-------0-00-00--0000--0-00-00--2-2-



Chorus Rhythm: 
Part One - play 3x
e
--------------------

B
--------------------

G
-4---------4--------

D
-4---2--4--4---2--4-

A
-2---2--4--2---2--4-

E
-----0--2------0--2-

Part Two - play 1x
e
-----------------------------------------

B
-----------------------------------------

G
------------4-44-44--4444--4-44-44--4444-

D
-6!---2--4--4-44-44--4444--4-44-44--4444-

A
-6!---2--4--2-22-22--2222--2-22-22--2222-

E
-4!---0--2-------------------------------


Chorus Lead: play 6x - cut out when rhythm gets to Part Two
e
-77777777777777777777777777777777-

B
----------------------------------

G
-44444444444444444444444444444444-

D
-44444444444444444444444444444444-

A
----------------------------------

E
----------------------------------



Verse Two Rhythm: play 1x - use same strumming as Lead until last E5
e
------------------------------

B
------------------------------

G
-4--3--------4--3-------------

D
-4--4--6--2--4--4--6--2-2-xxx-

A
-2--1--6--2--2--1--6--2-2-xxx-

E
-------4--0--------4--0-0-xxx-


Verse Two Lead: 
Part One - play 1x when rhythm plays first E5
e
--------

B
--------

G
--------

D
-2--2-2-

A
--------

E
--------

Part Two - play 2x - end with -----> this
e
------------------------------
  
------

B
-7-77-77--7777--7-77-77--7777-
  
-xxxx-

G
-4-44-44--4444--4-44-44--4444-
  
-xxxx-

D
------------------------------
  
------

A
------------------------------
  
------

E
------------------------------
  
------



Pre-Chorus (Rhythm Only): play 2x - 2nd time cut off before last F#5
e
---------------------------------------------

B
---------------------------------------------

G
-------------4-------------------------------

D
-6---4---2---4---2-22-22--2222--2-22-22--4-4-

A
-6---4---2---2---2-22-22--2222--2-22-22--4-4-

E
-4---2---0-------0-00-00--0000--0-00-00--2-2-



Chorus Rhythm: 
Part One - play 3x
e
--------------------

B
--------------------

G
-4---------4--------

D
-4---2--4--4---2--4-

A
-2---2--4--2---2--4-

E
-----0--2------0--2-

Part Two - play 1x
e
-----------------------------------------

B
-----------------------------------------

G
------------4-44-44--4444--4-44-44--4444-

D
-6!---2--4--4-44-44--4444--4-44-44--4444-

A
-6!---2--4--2-22-22--2222--2-22-22--2222-

E
-4!---0--2-------------------------------


Chorus Lead: play 6x - cut out when rhythm gets to Part Two
e
-77777777777777777777777777777777-

B
----------------------------------

G
-44444444444444444444444444444444-

D
-44444444444444444444444444444444-

A
----------------------------------

E
----------------------------------



Bridge: (play Parts One and Two w/ clean guitar)
Part One - play 2x
e
-2-22-22--2222-

B
-4-44-44--4444-

G
-4-44-44--4444-

D
-4-44-44--4444-

A
-2-22-22--2222-

E
---------------

Part Two - play 3x
e
-2-22-22--2222--0-00-00--2222-
B
-4-44-44--4444--0-00-00--2222-
G
-4-44-44--4444--1-11-11--3333-
D
-4-44-44--4444--2-22-22--4444-
A
-2-22-22--2222--2-22-22--4444-
E
----------------0-00-00--2222-
Part Three - play 1x
e
---------------

B
---------------

G
---------------

D
-6!--4!--2--/4-

A
-6!--4!--2--/4-

E
-4!--2!--0--/2-



Chap stick Chorus Rhythm:
Part One - play 3x
e
--------------------------------------------

B
--------------------------------------------

G
-4--44-444--4--44-444-----------------------

D
-4--44-444--4--44-444--2--22-222--4--44-444-

A
-2--22-222--2--22-222--2--22-222--4--44-444-

E
-----------------------0--00-000--2--22-222-

Part Two - play 1x
e
------------------------

B
------------------------

G
------------------------

D
-6-66-66--6666--6-\4-\2-

A
-6-66-66--6666--6-\4-\2-

E
-4-44-44--4444--4-\2-\0-


Chap stick Chorus Lead: play 3x - cut out when rhythm gets to Part Two
e
-77777777777777777777777777777777-

B
----------------------------------

G
-44444444444444444444444444444444-

D
-44444444444444444444444444444444-

A
----------------------------------

E
----------------------------------



Solo/Ending Rhythm:
Part One - play 7x
e
--------------------------------

B
--------------------------------

G
-------4444-44--3333--4444------

D
-2222--4444-44--4444--4444--44\-

A
-2222--2222-22--1111--2222--44\-

E
-0000-----------------------22\-

Part Two - play 1x
e
------------------

B
------------------

G
-----4~--3~--4~~--

D
-2~--4~--4~--4~~--

A
-2~--2~--1~--2~~--

E
-0~---------------


Solo/Ending Lead: play 2x - start after Rhythm plays Part One twice
e
--12--11--9-11-97-4--7--9-11-9-7--12--11--9-11-97-4--7--9-11-9~-

B
-0--00--00-0--0----00-00-0--0-0--0--00--00-0--0----00-00-0------

G
----------------------------------------------------------------

D
----------------------------------------------------------------

A
----------------------------------------------------------------

E
----------------------------------------------------------------




Notes/Comments:
   The lead parts in this song are very fast.  Also, I tried to tab the strumming
pattern as best I could, but you might have to change it a little.
*Note* - the first F#5 power chord below is in first inversion.  The second is normal.


Chords Used:
    B5 F#5 G#m5 E5 F#5 B  E  F#
e
---------------------2--0--2--

B
---------------------4--0--2--

G
--4--3---------------4--1--3--

D
--4--4---6----2--4---4--2--4--

A
--2--1---6----2--4---2--2--4--

E
---------4----0--2------0--2--

 


/
How To Set Up Higher Praise As Your Home Page
Copyright 1999, Higher Praise HigherPraise,Inc. All rights reserved. Terms of Use

Enjoy A Life Changing Experience

 
 
 
HigherPraise, Higher Praise, HigherPraise, Higher Praise, HigherPraise

Members..Sign Up. LogIn

 
 

Higher Praise Other Sites
 
 

HigherPraise.org/
Praise And Worship
www.higherpraise.org

HigherPraise.net
Christian Resources
www.higherpraise.net

HigherPraiseTube.com
Videos And Audios
www.higherpraisetube.com.


ChristianLyrics.org

Lyrics And Chrords
www.christianlyrics.org

ChristianChordsLyrics

Lyrics And Chrords
www.christianchordslyrics.com

ChristianChordLyrics

Lyrics And Chrords
www.christianchordlyrics.com

WorshipLyrics.org
10.000 Illustrations
www.worshiplyrics.org

WorshipLyrics.net
10.000 Illustrations
www.worshiplyrics.net

PraiseLyrics.com
PowerPoint Lyrics

www.praiselyrics.com

PraiseLyrics.org
PowerPoint Lyrics

www.praiselyrics.org

1GodTube.com
Chistian Videos

www1godtube..com

OneGodTube.com
Chistian Videos

www.onegodtube..com

 

/
Copyright 1999 - 2019, Higher Praise™ HigherPraise™,Inc. All rights reserved. Terms of Use