Creating Something Out Of Nothing Only To Destroy It Tabs by Norma Jean

Higher Praise - Guitar Chords, Lyrics  GuitarTabs -  Praise nad Worship Music And Christian Songs

Higher Praise - Guitar Tabs, Guitar Chords, Lyrics
   Lyrics, Chords And Tabs
   Popular Lyrics Chords Tab
   Power Point Lyrics
   Praise & Worship Music
   Christian Music Videos
   15900 Videos & Audios
   Midi Files
   Worship Questions
   Christmas Chords, Lyrics
   Lyrics, Chords Tabs Rated

Sermon Outlines And Audio Sermons
   9344 Sermon Outlines
   N.T. Sermon Outlines
   O.T. Sermon Outlines
   Special Guest Outlines
   10.000 Illustrations
   Sunday School Studies
   Bible College Studies
   Greatest Preachers
   Bible Research Tools
Audio Sermons
   2895 Audio Sermons
   85 Sermon Videos
   291 Special Guests Serm

   Complete Audio Bible
Higher Praise Sunday School Teaching
   Children's NT Studies
   Children's OT Studies

   98 Children's Midis
   Gospel For Kids Movie
   Children's JESUS Film
Higher Praise Christian Video Library ,Videos
   Christian Television
   TBN TV Live
   15,000 Videos - HP Tube
   712 Youth Music Vids
  Christian Video Library
   Praise Videos #1 & #2
   85 Sermon Videos
   Prophecy Film -Videos
   JESUS Film -Video
   Childrens JESUS Film
   Gospel For Kids Movie
   Passion Of The Christ
   Noah, Sodom, Sinai, Ark
   Tsunami Videos Photos
News And Information
   Testimonies
   Submit Lyrics, Tabs, Serm
   10.000 Illustrations
   Bible College Course
   Clipart & Web Graphics
   Greatest Preachers
   Complete Talking Bible
   Christian Chat Rooms
   Links Church Resource
   HP Statement Of Faith
Download Clipart
   Audio Sermons
   Clipart & Web Graphics
   Church Administration
   Bible Study Software
   Screen Savers Software
   Verse A Day Software
   Educational Games
   Trade Center Photos

   Soft. Search Engine
Higher Praise News
   Current News
    Archived News
   Submit News
   Newsletter   Higher Praise Interact Prayer
   Prayer For All Needs
   
Submit Lyrics, Sermons
   
Contact Higher Praise
   
Advertising 
   Privacy Policy
//
He Died For You,  Click For Answer! This Is Who Jesus Is Video

'
 
0-9 A B C D E F G H I J K L M N O P Q R S T U V W X Y Z
.

//
Click For Printable...Version Of This File
 

Creating Something Out Of Nothing Only To Destroy It


by Norma Jean

Share |



BAND: Norma Jean
SONG: Creating Something Out Of Nothing, Only To Destroy It
ALBUM: Bless the Martyr and Kiss the Child

so ive noticed there is a general lack of norma jean tabs on this
site, so i thought id write this one....probably my favorite norma
jean tune.
so yeah here goes...


palm-mute when necessary, its not hard to figure out when

also, my strumming patterns arent exact, but kinda give you an idea of
what theyre doin
and the end gets really crazy with lots of repition that would kinda
be a waste of space to tab out, so you gotta listen.
the riffs are here, but the breakdowns in the end just need to be
pieced together a little bit


NOTE- theyre arent always two definite guitar parts, i think most of
it is unison or double tracked, you could definitely play this with
one guitar and itd sound okay...both guitars are really only
distinctively heard in parts in the break downs towards the end..but
whatev, i only split it into two parts where you really hear them.


TUNING- halfstep down and drop d...soooo (both guitars!!!)
(low to high)
Db Ab Db Gb Bb Eb
(C# G# C# F# A# F#)

anyway...


intro...
(your eyes, your concrete eyes)
no guitar...
then....


    CROSSSS CRISS-CROSS MY PATH....
Eb
---------------0------0-----0-

Bb
--------------11-----11----11-

Gb
--------------14-----14----14-

Db
-0000--0-000-----00-----0-----
   repeat that a few times
Ab
-0000--0-000-----00-----0-----

Db
-0000--0-000-----00-----0-----



  MY WAR IS NOT WITH SOMEONE LIKE YOU....
GUITAR 1
Eb
------------

Bb
------------

Gb
------------

Db
-0----------

Ab
-0-let ring-
Db
-0----------

GUITAR 2
Eb
--------------------

Bb
--------------------

Gb
--------------/15---

Db
-0------------------

Ab
-0------------/14---

Db
-0------------------


   SLINGING BLOOD THAT IS NOT MY OWN....
Eb
-----------------------------------------------------------------

Bb
-----------------------------------------------------------------

Gb
-/10-10-10-10-10-10-10-15-15-15-15-15-15-15-15-10-10-10-10-10-10-

Db
-----------------------------------------------------------------

Ab
-/9--9--9--9--9--9--9--14-14-14-14-14-14-14-14-9--9--9--9--9--9--

Db
-----------------------------------------------------------------

repeat that a few times

GUITAR 1 keeps repeating....
Eb
-----------------------------------------------------------------

Bb
-----------------------------------------------------------------

Gb
-/10-10-10-10-10-10-10-15-15-15-15-15-15-15-15-10-10-10-10-10-10-

Db
-----------------------------------------------------------------

Ab
-/9--9--9--9--9--9--9--14-14-14-14-14-14-14-14-9--9--9--9--9--9--

Db
-----------------------------------------------------------------


 GUITAR 2- corresponds to guitar one's part...i put the 10 in
parenthesis because it adds more to the discord of the breakdown, but
isnt entirely necessary...im pretty sure theres other crap in there
too but its hard to pick out of all the noise, but this is basically
it. and sorry, i didnt put the rythmn and the strumming pattern, etc.
Eb
------------------------------------------------------------

Bb
------------------------------------------------------------

Gb
--------------------(10)------------------------------------

Db
-4-4-4-4-4-4-4-4etc.--9-9-9-9-9-9-9-9-9etc.---4-4-4-4-4-4-4-

Ab
-4-4-4-4-4-4-4-4------9-9-9-9-9-9-9-9-9-------4-4-4-4-4-4-4-

Db
-4-4-4-4-4-4-4-4------9-9-9-9-9-9-9-9-9-------4-4-4-4-4-4-4-


-quick pause-


     once again, this part is in no kind of rythmn,
   and he adds the higher Db (5) at random parts, but if you listen youll
   hear it
(1:55) "UNSEEN WAAAAR..."
Eb-------------------------

Bb-------------------------

Gb-----------------5-5-555-

Db-0-0-00-0-0-000--0-0-000-

Ab-0-0-00-0-0-000--0-0-000-

Db-0-0-00-0-0-000--0-0-000-


(2:14)
then guitar one does this little ditty...
Eb
------------------------------

Bb
-----------------10-----------

Gb
---10-11-10---10----10--------

Db
------------------------00-00-

Ab
-9----------9-----------00-00-

Db
------------------------00-00-


guitar two-                P.M
Eb
------------------------------

Bb
------------------------------

Gb
------------------------------

Db
------------------------00-00-

Ab
------------------------00-00-

Db
------------------------00-00-


(2:17)    "YOUR WEAPONS ARE USELESS..."
Eb
------------------------------------------------------------------

Bb
------------------------------------------------------------------

Gb
-7-7-7-7-7-7-7----------10---------10-------10-10-10--------------

Db
-6-6-6-6-6-6-6--0-00-00----0-00-00----0-00-----------0-0-0-0-0----

Ab
-5-5-5-5-5-5-5--0-00-00-8--0-00-00-8--0-00--8--8--8--0-0-0-0-0----

Db
-0-0-0-0-0-0-0--0-00-00----0-00-00----0-00-----------0-0-0-0-0----


   "GOLDEN GUN"
Eb
------------------------------------

Bb
------------------------------------

Gb
-------------------10---------10----

Db
-0--1--3--0-0-00-0----0-0-0-0-------
  repeat both of those a few
Ab
-0--1--3--0-0-00-0-8--0-0-0-0-8-----
           times.
Db
-0--1--3--0-0-00-0----0-0-0-0-------


guitar one
(2:57-3:09)
Eb
-----------------------------

Bb
-----------------------------

Gb
-7---------------------------

Db
-6-keep strumming this chord-
Ab
-5---------------------------

Db
-0---------------------------


(3:10) both (P.M.)
Eb
---------

Bb
---------

Gb
---------

Db
-0-000---

Ab
-0-000---

Db
-0-000---


(3:11) both
       "like bringing a knife to a gun fight..."
Eb
--------------------------------------------------

Bb
--------------------------------------------------

Gb
--------------------------------------------------

Db
-1-00-1-00-1-00-1-00-1-00-1-00-1-00-1-00-00-0-000-

Ab
-1-00-1-00-1-00-1-00-1-00-1-00-1-00-1-00-00-0-000-

Db
-1-00-1-00-1-00-1-00-1-00-1-00-1-00-1-00-00-0-000-

   PM................................................

   "LIKE BRINGING A KNIFE TO A GUN FIGHT!!"
Eb
-------------------------------------------

Bb
------------------15-15-15-15-15-15--------

Gb
------------------18-18-18-18-18-18--------

Db
-0-00-0-00-0-0-0---------------------0-0-0-

Ab
-0-00-0-00-0-0-0---------------------0-0-0-

Db
-0-00-0-00-0-0-0---------------------0-0-0-

  P.M..............

Eb
----------------------------------------------

Bb
------------------15-15-15-15-15-15-15b-------

Gb
------------------18-18-18-18-18-18-18b-------

Db
-0-00-0-00-0-0-0------------------------0-0-0-

Ab
-0-00-0-00-0-0-0------------------------0-0-0-

Db
-0-00-0-00-0-0-0------------------------0-0-0-

  P.M..............

   do the above line a bunch of times with slight rythmnic variations,
then it pauses, then drums and bass like the intro, and its pretty
much all feedback and sliding along the fretboard from there on out,
which i was too lazy to tab, just turn your gain way the hell up, and
youll be fine.

so thats about it...
now all you have to do is piece the breakdowns together and voila.


sorry about my lack of organization
 


/
How To Set Up Higher Praise As Your Home Page
Copyright 1999, Higher Praise HigherPraise,Inc. All rights reserved. Terms of Use

Enjoy A Life Changing Experience

 
 
 
HigherPraise, Higher Praise, HigherPraise, Higher Praise, HigherPraise

Members..Sign Up. LogIn

 
 

Higher Praise Other Sites
 
 

HigherPraise.org/
Praise And Worship
www.higherpraise.org

HigherPraise.net
Christian Resources
www.higherpraise.net

HigherPraiseTube.com
Videos And Audios
www.higherpraisetube.com.


ChristianLyrics.org

Lyrics And Chrords
www.christianlyrics.org

ChristianChordsLyrics

Lyrics And Chrords
www.christianchordslyrics.com

ChristianChordLyrics

Lyrics And Chrords
www.christianchordlyrics.com

WorshipLyrics.org
10.000 Illustrations
www.worshiplyrics.org

WorshipLyrics.net
10.000 Illustrations
www.worshiplyrics.net

PraiseLyrics.com
PowerPoint Lyrics

www.praiselyrics.com

PraiseLyrics.org
PowerPoint Lyrics

www.praiselyrics.org

1GodTube.com
Chistian Videos

www1godtube..com

OneGodTube.com
Chistian Videos

www.onegodtube..com

 

/
Copyright 1999 - 2019, Higher Praise™ HigherPraise™,Inc. All rights reserved. Terms of Use