Torpe Song 5 Tabs by Mymp

Higher Praise - Guitar Chords, Lyrics  GuitarTabs -  Praise nad Worship Music And Christian Songs

Higher Praise - Guitar Tabs, Guitar Chords, Lyrics
   Lyrics, Chords And Tabs
   Popular Lyrics Chords Tab
   Power Point Lyrics
   Praise & Worship Music
   Christian Music Videos
   15900 Videos & Audios
   Midi Files
   Worship Questions
   Christmas Chords, Lyrics
   Lyrics, Chords Tabs Rated

Sermon Outlines And Audio Sermons
   9344 Sermon Outlines
   N.T. Sermon Outlines
   O.T. Sermon Outlines
   Special Guest Outlines
   10.000 Illustrations
   Sunday School Studies
   Bible College Studies
   Greatest Preachers
   Bible Research Tools
Audio Sermons
   2895 Audio Sermons
   85 Sermon Videos
   291 Special Guests Serm

   Complete Audio Bible
Higher Praise Sunday School Teaching
   Children's NT Studies
   Children's OT Studies

   98 Children's Midis
   Gospel For Kids Movie
   Children's JESUS Film
Higher Praise Christian Video Library ,Videos
   Christian Television
   TBN TV Live
   15,000 Videos - HP Tube
   712 Youth Music Vids
  Christian Video Library
   Praise Videos #1 & #2
   85 Sermon Videos
   Prophecy Film -Videos
   JESUS Film -Video
   Childrens JESUS Film
   Gospel For Kids Movie
   Passion Of The Christ
   Noah, Sodom, Sinai, Ark
   Tsunami Videos Photos
News And Information
   Testimonies
   Submit Lyrics, Tabs, Serm
   10.000 Illustrations
   Bible College Course
   Clipart & Web Graphics
   Greatest Preachers
   Complete Talking Bible
   Christian Chat Rooms
   Links Church Resource
   HP Statement Of Faith
Download Clipart
   Audio Sermons
   Clipart & Web Graphics
   Church Administration
   Bible Study Software
   Screen Savers Software
   Verse A Day Software
   Educational Games
   Trade Center Photos

   Soft. Search Engine
Higher Praise News
   Current News
    Archived News
   Submit News
   Newsletter   Higher Praise Interact Prayer
   Prayer For All Needs
   
Submit Lyrics, Sermons
   
Contact Higher Praise
   
Advertising 
   Privacy Policy
//
He Died For You,  Click For Answer! This Is Who Jesus Is Video

'
 
0-9 A B C D E F G H I J K L M N O P Q R S T U V W X Y Z
.

//
Click For Printable...Version Of This File
 

Torpe Song 5


by Mymp

Share |



Torpe Song # 5         
 Note:
By: MYMP               
 This song is quite simple, just follow the chord

 pattern and just pluck. Shout-outs going out to
Date tabbed(09.28.05)  
 my friends Abiezer~kurt angle, Clark~Mr. Fruity,
Date Finished(10.23.05)
 Christian~pato, Gina, Giovanni~berserker,
Date Typed(02.27.05)   
 Harvy~tan or hung hang harvy, Irene~ate ay-ay,
NO OF GUITARS: 2       
 Jade~cute, Jill~cute, Marco~law & Yam,
                       
 and to all MM3 BOYS' HIGH!
==========================================================================
~Legend~
==========================================================================
-----                

--.--  staccato      

--7--                

-----                

                     

-----------          

--4B[1/4]--   Bend[]

-----------          

-----------          

                     

~~~~~   Vibrato      

                     

                     

--------             

--4/9----slide up    

--------             

--9\4----slide down  

--------             

                     

h-hammer on          

p-pull off           

                     

----------           

----9-----           

---8  L--- Tie       

----------(Linked    

----------    note)  

                     

-1x------            

-1x------            

-2x------            

-3x------ mute sound 

-3x------            

-1x------            

                     

    5x               

--------
 repeat    

---2--3-
 bar 5x    

---2--2-
 before    

---2--2-
 proceeding

--------
 the next  

--------
           

                     



page 1
==========================================================================
~Chords used~
==========================================================================

           EADGBE
F..........133211
G..........355433
F/A .......x03211  or  Csus4add13
Fsus4......x13311
Csus2......x35533
Fsus4/D#...xx1311
Bm/5-/D....xx0767
Csus2/G....335533

==========================================================================
~intro~ [Riff 1] - chord pattern: F-G-F/A-Fsus4
==========================================================================

Guitar 1

           F                 G	           F/A           Fsus4

e -1----------------
---------------
----------1---
--1-----1-------------

B ---------1--------
--3------3-----
-------1------
--1---1-----1---------

G --------------0---
------------4--
--------------
----3-----------------

D ------3-----3---3-
------5--------
-----3--------
----------------------

A ---3--------------
----5----------
--0-----------
--1-----1-------------

E -1-------1--------
--3------------
--------------
----------------------


	Same chord pattern

e -1----------------
---------------
----------1---
--1------1------1-----

B ---------1--------
--3------3-----
-------1------
---------1------------

G --------------0---
------------4--
--------------
----------------------

D ------3-----3---3-
------5--------
-----3--------
----------------------

A ---3--------------
----5----------
--0-----------
--1---1--1------------

E -1-------1--------
--3------------
--------------
----------------------


Guitar 2

		3x
e-----------------------------
-----------------------

B-----------------------------
-----------------------

G---------.--.----------------
-----------------------

D---------7--7--.--.---.------
---.----.--------------

A--8h10---------8--10--8------
---5----3--------------

E-----------------------------
-----------------------


           2x                                           ~~~~
e------------------------
--------------------------
---------------------

B------------------------
--------------------------
---------------------

G--------.--.------------
-9B[1/2]-9--10--9---------
---------------------

D--------7--7---.--.---.-
------------------10-7--8-
-10     L/12---------

A-8h10----------8--10--8-
-0                   L----
-------------8-10----

E------------------------
--------------------------
---------------------


Page 2
==========================================================================
~Kung di ngayon~ [Riff 2] chord pattern: F-G-F/A-Fsus4
                                         F-G-F/A-Fsus4-Csus2
==========================================================================

	same chord pattern

e----------------
--------3-------
----------1--1x--
---------1-----------

B--------1-------
--3-------3-----
--------1----1x--
---------------------

G--2-------------
----------------
------2------2x--
-------3-----3-------

D----------3-----
----------------
----3------------
-----3---------3-----

A-------------3--
-------------5--
--0--------------
---1-------1-----1---

E--1-------------
--3---3---------
-----------------
---------------------


					               Fsus4    Csus2
e----------------
--------3-------
----------1--1x--
-----------.--.------

B--------1-------
--3-------3-----
--------1----1x--
-----------3--3------

G--2-------------
----------------
------2------2x--
-------3---5--5------

D----------3-----
----------------
----3------------
-----3---------------

A-------------3--
-------------5--
--0--------------
---1-------3--3------

E--1-------------
--3---3---------
-----------------
---------------------


Kung di ngayon kailan pa, bukas o makalawa
Baka pa makawala pa
Naiparating mo na ba, naihayag mo na ba
Nakapagtapat ka na ba, ano ba?

==========================================================================
~Di niya malalaman~ [Riff 3] chord pattern: F-G-F/A-Fsus4
                                            F-G-F/A-Fsus4-Csus2
==========================================================================

	F			       G
e-----------------------------
-----------------3-------------------------

B--1---1-x---------------1----
--3---3-x------------3---------------------

G--2---2-x------------2-------
--4---4-x----------------------------------

D--3---3-x---------3----------
--5---5-x----5-----------5-----------------

A--3---3-x--------------------
--5---5-x----------------------------------

E--1---1-x----1---------------
--3---3-x----------------------------------



	Csus4add13
e--1---1-x--------1-----------
--1---1-x--------1-------------------------

B--1---1-x--------1-----------
--1---1-x------------1---------------------

G--2---2-x--------2-----------
--3---3-x----------------------------------

D--3---3-x----3---------------
--3---3-x----3-----------3-----------------

A--0---0-x--------------------
--1---1-x----------------------------------

E-----------------------------
-------------------------------------------


	Same chord pattern
e-----------------------------
-----------------3-------------------------

B---1---1-x-------1-----------
--3---3--------------3---------------------

G---2---2-x-------2-----------
--4---4------------------------------------

D---3---3-x-------3-----------
--5---5------5-----------5-----------------

A---3---3-x-------------------
--5---5------------------------------------

E---1---1-x---1------1--------
--3---3------------------------------------

Page3
e---1---1-x------1------------
-----1-------------3-----------------------

B---1---1-x------1------------
---------1------------5--------------------

G---2---2-x------2------------
-------------------------------------------

D---3---3-x---3---------------
------------3------------------------------

A---0---0-x-------------------
--1------------3---------------------------

E-----------------------------
-------------------------------------------


Di niya malalaman, di mahuhulaan damdamin mo
Kung di sasabihin, kaya nga't sabihin mo na

==========================================================================
~may patula tula pa~ [Riff 4] chord pattern: F-G-F/A-Fsus4
                                             F-G-F/A-Fsus4-Csus2
==========================================================================


e---------------------
-------------------3-------------------------------

B---1-------1---------
--3--------3----------3----------------------------

G---------------0-----
--------4------------------------------------------

D--------3----3---3---
-----5-------------------5-------------------------

A------3--------------
---------------------------------------------------

E---1-------1---------
--3------------3-----------------------------------



e--------------1--1-x-
--1--------1---------------------------------------

B-----------1-----1-x-
--1------------------------------------------------

G--------2--------2-x-
--------3---------3--------------------------------

D-----3---------------
-----3---------------3-----------------------------

A--0------------------
--1-----------1---------1--------------------------

E---------------------
---------------------------------------------------



e---------------------
-------------------3-------------------------------

B--1--------1----0----
--3---------3----------3---------------------------

G--2-----------3---3--
--4------4-----------------------------------------

D-------3-------------
------5--------------------5-----------------------

A-----3---------------
---------------------------------------------------

E--1--------1---------
--3------------3-----------------------------------



e-----------------1-x-
-----1---------------------------------------------

B-----------1-----1-x-
--1------1----3----3-------------------------------

G--------2--------2-x-
--3-----------5----5-------------------------------

D-----3--------3------
---------------------------------------------------

A--0------------------
--1-----------3----3-------------------------------

E---------------------
---------------------------------------------------


May patula-tula pa, di niya naman nabasa
Baka pa matulala ka
Pag may ibang pumorma mauunahan ka pa
Baka mag-mukha kang tanga diba!

Page 4
==========================================================================
~Di niya malalaman~ [Riff 5] chord pattern: F-G-F/A-Fsus4  F-G-F/A-
==========================================================================

repeat Part 5 1x EXEPT for last bar
e----------------------------
--------------------------------------------

B--1---1-x--------1-------1--
---3---3-x------3------3--------------------

G--2---2-x--------2-------2--
---4---4-x------4------4--------------------

D--3---3-x-------------------
---5---5-x---5------5-----------------------

A--3---3-x-------------------
---5---5-x----------------------------------

E--1---1-x----1-------1------
---3---3-x----------------------------------



e--1---1-x---------------1---
---1---1-x--------1-------------------------

B--1---1-x-----------1-------
---1---1-x-----------1----------------------

G--2---2-x-------2-----------
---3---3-x----------------------------------

D--3---3-x---3---------------
---3---3-x----3---------3-------------------

A--0---0-x-------------------
---1---1-x----------------------------------

E----------------------------
--------------------------------------------


Di niya malalaman (di ko malalaman)
Di mahuhulaan damdamin mo
Kung di sasabihin (sabihin mo na)
kaya nga't sabihin mo na
                                                       F-G-F/A-Fsus4-Csus2
==========================================================================
~Sige na~ [Riff 6] chord pattern: Fsus4-Csus2 F G F/A Fsus4 Fsus4/D# Fsus4
                                  F G F/A Fsus4 Bm/5-/D G F Csus2/G
==========================================================================

						  (sige na..)
					  4x    4x    4x    4x    8x    8x
e-1-----1--1--
--3-----3--3---
-----
-----
--1--
--1--
--1--
--1----------

B-1--1--1--1--
--3--3--3--3---
--1--
--3--
--1--
--1--
--1--
--1----------

G-3--3--3--3--
--5--5--5--5---
--2--
--4--
--2--
--3--
--3--
--3----------

D-3--3--3--3--
--5--5--5--5---
--3--
--5--
--3--
--3--
--1--
--3----------

A-1--1--1--1--
--3--3--3--3---
--3--
--5--
--0--
--1--
-----
--1----------

E-------------
---------------
--1--
--3--
-----
-----
-----
-------------


 4x  4x  4x   4x
e---
---
-1-
-1-
-7-------3---
------------------
----3-----------3-------

B-1-
-3-
-1-
-1-
-6-----------
-1-----1----------
-3-----3-----3-----3----

G-2-
-4-
-2-
-3-
-7---------5-
-------------0----
------------------------

D-3-
-5-
-3-
-3-
-0-----------
----3-----3-----3-
----------5-----------5-

A-3-
-5-
-0-
-1-
----3--3-----
------------------
-------------3----------
        L
E-1-
-3-
---
---
-------------
-1-----1----------
-3----------------------


Sige na, lakad na,
sugod na baka mawala pa
Kayang kaya mo yan
Sige na, lakad na,
sugod na kapal mukha na
Kayang kaya mo yan
Kayang kaya mo yan


Page 5
=======================
then play:
[riff 1 after riff 6]

[riff 4]-for this part, dont play the last part of
riff 4, instead play this
   e-----1-----------------------

   B--1--1------3----------------

   G--3--3------5----------------

   D--3--3------5----------------

   A--1--1------3----------------

   E-----------------------------

May patula-tula pa, di naman niya nabasa
Baka pa matulala ka
Pag may ibang pumorma mauunahan ka pa
Baka mag mukha kang tanga diba!


[riff 5]
Di niya malalaman (di ko malalaman)
di mahuhulaan damdamin mo
Kung di sasabihin, (sabihin mo na)
kaya nga't sabihin mo na

[riff 6]
Sige na, lakad na, sugod na baka mawala pa
Kayang kaya mo yan
Sige na, lakad na, sugod na kapal mukha na
Kayang kaya mo yan
Kayang kaya mo yan

[riff 6 -(starting from sige na...)]
Sige na, lakad na, sugod na baka mawala pa
Kayang kaya mo yan
Sige na, lakad na, sugod na baka sagutin ka
Sana nga o sana

Kayang kaya mo yan...
[riff 1]

[end chord "F"(strum down slow)]
e--1------

B--1------

D--2------

G--3------

A--3------

E--1------


mASMAAYOS TO! Kahit anu ano kasi pinaglalagay ng pren ko!

Page 7-end

Page set-up:
suggested settings
1" Left & Right Margin,
1" Top & bottom margin
Font size: 10, courier
for microsoft word
 


/
How To Set Up Higher Praise As Your Home Page
Copyright 1999, Higher Praise HigherPraise,Inc. All rights reserved. Terms of Use

Enjoy A Life Changing Experience

 
 
 
HigherPraise, Higher Praise, HigherPraise, Higher Praise, HigherPraise

Members..Sign Up. LogIn

 
 

Higher Praise Other Sites
 
 

HigherPraise.org/
Praise And Worship
www.higherpraise.org

HigherPraise.net
Christian Resources
www.higherpraise.net

HigherPraiseTube.com
Videos And Audios
www.higherpraisetube.com.


ChristianLyrics.org

Lyrics And Chrords
www.christianlyrics.org

ChristianChordsLyrics

Lyrics And Chrords
www.christianchordslyrics.com

ChristianChordLyrics

Lyrics And Chrords
www.christianchordlyrics.com

WorshipLyrics.org
10.000 Illustrations
www.worshiplyrics.org

WorshipLyrics.net
10.000 Illustrations
www.worshiplyrics.net

PraiseLyrics.com
PowerPoint Lyrics

www.praiselyrics.com

PraiseLyrics.org
PowerPoint Lyrics

www.praiselyrics.org

1GodTube.com
Chistian Videos

www1godtube..com

OneGodTube.com
Chistian Videos

www.onegodtube..com

 

/
Copyright 1999 - 2019, Higher Praise™ HigherPraise™,Inc. All rights reserved. Terms of Use