Till They Take My Heart Away Tabs by Mymp

Higher Praise - Guitar Chords, Lyrics  GuitarTabs -  Praise nad Worship Music And Christian Songs

Higher Praise - Guitar Tabs, Guitar Chords, Lyrics
   Lyrics, Chords And Tabs
   Popular Lyrics Chords Tab
   Power Point Lyrics
   Praise & Worship Music
   Christian Music Videos
   15900 Videos & Audios
   Midi Files
   Worship Questions
   Christmas Chords, Lyrics
   Lyrics, Chords Tabs Rated

Sermon Outlines And Audio Sermons
   9344 Sermon Outlines
   N.T. Sermon Outlines
   O.T. Sermon Outlines
   Special Guest Outlines
   10.000 Illustrations
   Sunday School Studies
   Bible College Studies
   Greatest Preachers
   Bible Research Tools
Audio Sermons
   2895 Audio Sermons
   85 Sermon Videos
   291 Special Guests Serm

   Complete Audio Bible
Higher Praise Sunday School Teaching
   Children's NT Studies
   Children's OT Studies

   98 Children's Midis
   Gospel For Kids Movie
   Children's JESUS Film
Higher Praise Christian Video Library ,Videos
   Christian Television
   TBN TV Live
   15,000 Videos - HP Tube
   712 Youth Music Vids
  Christian Video Library
   Praise Videos #1 & #2
   85 Sermon Videos
   Prophecy Film -Videos
   JESUS Film -Video
   Childrens JESUS Film
   Gospel For Kids Movie
   Passion Of The Christ
   Noah, Sodom, Sinai, Ark
   Tsunami Videos Photos
News And Information
   Testimonies
   Submit Lyrics, Tabs, Serm
   10.000 Illustrations
   Bible College Course
   Clipart & Web Graphics
   Greatest Preachers
   Complete Talking Bible
   Christian Chat Rooms
   Links Church Resource
   HP Statement Of Faith
Download Clipart
   Audio Sermons
   Clipart & Web Graphics
   Church Administration
   Bible Study Software
   Screen Savers Software
   Verse A Day Software
   Educational Games
   Trade Center Photos

   Soft. Search Engine
Higher Praise News
   Current News
    Archived News
   Submit News
   Newsletter   Higher Praise Interact Prayer
   Prayer For All Needs
   
Submit Lyrics, Sermons
   
Contact Higher Praise
   
Advertising 
   Privacy Policy
//
He Died For You,  Click For Answer! This Is Who Jesus Is Video

'
 
0-9 A B C D E F G H I J K L M N O P Q R S T U V W X Y Z
.

//
Click For Printable...Version Of This File
 

Till They Take My Heart Away


by Mymp

Share |



Till they take my heart away
MYMP


Tuning: Regular

Intro:
e-----0------------0-----
--------0--------0-----
-----0------------0------

B-------------------0----
-------------0---0-----
------------------0------

G---8---8---8----8---8---
---9-8-8----6--6-6-6-6-
---8---8---8---8-8--8-8--

D----9---7-7------9---9--
--9-9-9----7-----------
----9---7-7---9-------9--

A--7------------7------9-
-----------------------
--7--------------------9-

E-0------------0---------
-9--------5------------
-0-----------0-----------


                         Verse 1
e----------------------0-
------0--------0----
---------------------0------

B--------7------------0--
--------------------
-------7--7-------0--0------

G----9-------9-------6---
---8--------8----8--
----9-----------6----6------

D--9---9---9---9---7-----
-----9--------9---9-
--9---9--9----7-------------

A----------------5-------
--7--------7--------
------------5---------------

E-9----------------------
-0-------0----------
-9--------------------------

                           I look into your eyes so far away

e------0-----------0----
--------------------0-----
-------------------------

B-------------------0---
-------4----------0-------
---0-0---2-2-----2-2-----

G---8----8------8----8--
----4---4-4-------6---6---
---1-1---2-2-tap-2-2-----

D----9----9------9----9-
---6-6-----6----7-------7-
--2---2------------------

A--7----------7---------
-4-----------4/5----------
-0-----0-2-------2-------

E-0----------0----------
--------------------------
-------------------------

There's trouble on your mind,you're losing faith.. Hey now let me hold you

e---------0-------------------
---------2-----------------------------------

B-------0--0------5-4------4--
-----------2-----2--2---2--------------------

G-----1-----1-----4---4-4-----
-------2-----2------2---2--------------------

D---2--------2------------6---
-----2---------2------2----------------------

A---------------4-------------
---4----------------2------------------------

E-0---------------------------
-2-------------------------------------------

It will be ok cause i will love you till they take my heart away

e------0---------0---0---
-------------------0------
---------------0-------

B------------------------
-------4----------0---0---
---0-0--0-----0-0-0----

G---8---8-----8----8--8--
----4----4-------6---6----
---1---1-----1----1-1--

D----9---9-----9-------9-
---6-6----6-----7-------7-
--1---------1--------1-

A--7---------7-----------
-4----------4/5-----------
-----------------------

E-0---------0------------
--------------------------
-0---------0-----------

Remember when you called and said goodbye...You though we'd lost it all

e---------------0-----
-----------0-----------------------------------------

B---4-----------0-----
--0-----0--0-------2R-2R-2--2------------------------

G---4-4-----6-6---6---
--1-tap-1----tap---2R-2R-2--2-tap--4-4-tap-4--4-tap--

D--6----6---7-------7-
--2-----2-2------------------------4-4--------4------

A-4------4/5----------
-0---------------0-2R-2R-2-2-------------------------

E---------------------
-----------------------------------4-------4-4-------

and so did I..But even if i'd lost you it will be the same

                                   Chorus:
e---------------
-----------------
-----------------------------------------

B---4h5-4-----4-
---2-2-----2-2-4-
-2-2--------2R-2--2-----2R-2--2R-2--2-2--

G---4----4----4-
---1-1---2-2-2-4-
-1-1-tap-1--1R-1--1--1--2R-2--2R-2--2-2--

D--6-------6-6--
--2------2-------
-----------------2-----------------------

A-4-------------
-0---------2-2---
-0---------0--------0--2-----2----2--2---

E---------------
-------0-2-------
-----------------------------------------

'cause i will love you till they take my heart away...believe..


e------------------------------------
-------------------------2---2-------

B----------------------5-4----4--4---
---2-------2---2---2---2-2---2-2-----

G--4R-4--4R-4--4-------4-4-4--4--4---
-2-2-tap---2---2---2---2-2---2-2-----

D--4R-4--4R-4--4------6-----6---6----
-2-------2-2-----------4-------4-----

A-------------------4--------------4-
-4-------4-------4-----2---2---------

E-4-----4-----4--4-------------------
-2-------2---2---2---2---------------

im here to stay 'cause i will love you till they take my heart away.


e-------0------------0--------
-------------------------0------------------

B-----------------------------
-----5-4-----4----------0-------------------

G----8----8-8-----8----8-8----
-----4---4-----4------6---------------------

D-----9----9-9---9-9------9---
---6------6----------7----------------------

A---7----------------------7--
-4---------4-----4/5------------------------

E-0-------------0-------------
--------------------------------------------

                   ooohhh....

VERSE 2

e-----0--------0-----
---------------0--
---------0---------------0--------

B--------------------
----4--------0----
----------------------------------

G---8---8---8----8---
---4-4-----6-6----
-----8-----8-8-------8-----8------

D--9-9-----9-9-----9-
--6-------7-------
-------9-----9-9-------9----9-----

A--------------------
-4-----4/5--------
---7---------------7--------------

E-0-------0----------
------------------
-0----------------0---------------

Now its stronger than before we made it through,and i've never felt more sure


e-----------------0-----
------0-------------
------0-------------------------

B-----4-4-------0-------
------2---2-2-----2-
--------0---------5-4------4----

G-----4-4-------6-------
----1-----2-2-tap-2-
-----2----2-----------4-4--4----

D---6---------7---------
---2----------------
---4-------4R----6----------6---

A-4-------4/5-------5-5-
-0------0-2-------2-
--2----------2--4---------4-----

E-----------------------
--------------------
-0------------------------------

because of you...       Hey now are you listening can you hear me say?

e------0--------------
-----------------------------------------------------

B----0---------2--2-4-
-2-2-----2-2--2---2----2-2-----2-2--2---2------------

G----1-------2-2--2-4-
-1-1-----1-1--1---1----2-2-tap-2-2--2---2------------

D---2--------2-2--2---
-----tap--------2------2--------------2--------------

A-0------0-0-4----2---
-0-------0---0------0--2-------2---2------2----------

E------------2--------
-----------------------------------------------------

casue i will love you till they take my heart away...believe....

e---0----------0----------------------
----------------------------2----2---

B---0-------0--0--0----4h5-4---4--4---
-2-2---2-2--2--2---2-2----2-2--2-2---

G-4-4-tap-4-4--4--4----4----4--4--4---
-1-1---1-1--1--1---2-2----2-2--2-----

D-4---tap-4----------6-------6------6-
----tap-------2----2--tap-2---2------

A-------------------4------------4----
-0-----0---0-----0-2------2-----2-2/-

E-4---tap-4--4---4--------------------
-------------------------------------

Im here to stay...'cause i will love you till they take my heart away..


Bridge: Strumming
e-5---4-----4-----
--------4--
--2--4--6--6----
-----4/62-4-
----6----------

B-7---5-7p5-4(5)--
--2--4--4--
--2--4--6--6(7)-
--4--4/64-4-
-6--6(7)-------

G-6---4-----4-----
--2--4--4--
--3--4--6--6----
--4--4/63-4-
-6--6----------

D-7---6-----6-----
--2--4--6--
--4--6--6--8----
--4--6/84-4-
-6--8----------

A-5---4-----4-----
--4--6--4--
--2--4--8--6----
--6--4/62-4-
-8--6----------

E-----------------
--2--4------
--------6-------
--4----------
-6-----------

                                          ..Believe in me im here to stay..


e--4-----------------------------4----4---------2------4--------6-----------

B--4-----------------------------4----6---------2------4-----6--7-----------

G--4-----------------------------4----4---------3------4-----6--6-----------

D--4-----------------------------6----6---------4------4-----6--8-----------

A--6-----------------------------4----4---------2------4-----8--6-----------

E--4---------------------------------------------------------6--------------

'cause i will love you till they take my heart away...away...away...


e--4--4---
---------2---------------2------
-----2-------------4------
---

B--4--4---
--------2--2-----------2--2-----
----4--4----------4--4----
---

G--4--4-4-
------3------3---3----3-----3---
---3----3--------4----4---
-3-

D--4--4---
----4----------4-----4-------4--
--4-------------4------4--
-4-

A--6--4---
------------------------------4-
-2--------2-2-4---------4-
-4-

E--4------
-2------------------2-----------
--------------------------
-2-

'cause i will love you till they take my heart away..


* R means release the string(s)or make it sound a little muted.
Figure it out.
questions? please e-mail.
 


/
How To Set Up Higher Praise As Your Home Page
Copyright 1999, Higher Praise HigherPraise,Inc. All rights reserved. Terms of Use

Enjoy A Life Changing Experience

 
 
 
HigherPraise, Higher Praise, HigherPraise, Higher Praise, HigherPraise

Members..Sign Up. LogIn

 
 

Higher Praise Other Sites
 
 

HigherPraise.org/
Praise And Worship
www.higherpraise.org

HigherPraise.net
Christian Resources
www.higherpraise.net

HigherPraiseTube.com
Videos And Audios
www.higherpraisetube.com.


ChristianLyrics.org

Lyrics And Chrords
www.christianlyrics.org

ChristianChordsLyrics

Lyrics And Chrords
www.christianchordslyrics.com

ChristianChordLyrics

Lyrics And Chrords
www.christianchordlyrics.com

WorshipLyrics.org
10.000 Illustrations
www.worshiplyrics.org

WorshipLyrics.net
10.000 Illustrations
www.worshiplyrics.net

PraiseLyrics.com
PowerPoint Lyrics

www.praiselyrics.com

PraiseLyrics.org
PowerPoint Lyrics

www.praiselyrics.org

1GodTube.com
Chistian Videos

www1godtube..com

OneGodTube.com
Chistian Videos

www.onegodtube..com

 

/
Copyright 1999 - 2019, Higher Praise™ HigherPraise™,Inc. All rights reserved. Terms of Use