Man In The Mirror Tabs by Mymp

Higher Praise - Guitar Chords, Lyrics  GuitarTabs -  Praise nad Worship Music And Christian Songs

Higher Praise - Guitar Tabs, Guitar Chords, Lyrics
   Lyrics, Chords And Tabs
   Popular Lyrics Chords Tab
   Power Point Lyrics
   Praise & Worship Music
   Christian Music Videos
   15900 Videos & Audios
   Midi Files
   Worship Questions
   Christmas Chords, Lyrics
   Lyrics, Chords Tabs Rated

Sermon Outlines And Audio Sermons
   9344 Sermon Outlines
   N.T. Sermon Outlines
   O.T. Sermon Outlines
   Special Guest Outlines
   10.000 Illustrations
   Sunday School Studies
   Bible College Studies
   Greatest Preachers
   Bible Research Tools
Audio Sermons
   2895 Audio Sermons
   85 Sermon Videos
   291 Special Guests Serm

   Complete Audio Bible
Higher Praise Sunday School Teaching
   Children's NT Studies
   Children's OT Studies

   98 Children's Midis
   Gospel For Kids Movie
   Children's JESUS Film
Higher Praise Christian Video Library ,Videos
   Christian Television
   TBN TV Live
   15,000 Videos - HP Tube
   712 Youth Music Vids
  Christian Video Library
   Praise Videos #1 & #2
   85 Sermon Videos
   Prophecy Film -Videos
   JESUS Film -Video
   Childrens JESUS Film
   Gospel For Kids Movie
   Passion Of The Christ
   Noah, Sodom, Sinai, Ark
   Tsunami Videos Photos
News And Information
   Testimonies
   Submit Lyrics, Tabs, Serm
   10.000 Illustrations
   Bible College Course
   Clipart & Web Graphics
   Greatest Preachers
   Complete Talking Bible
   Christian Chat Rooms
   Links Church Resource
   HP Statement Of Faith
Download Clipart
   Audio Sermons
   Clipart & Web Graphics
   Church Administration
   Bible Study Software
   Screen Savers Software
   Verse A Day Software
   Educational Games
   Trade Center Photos

   Soft. Search Engine
Higher Praise News
   Current News
    Archived News
   Submit News
   Newsletter   Higher Praise Interact Prayer
   Prayer For All Needs
   
Submit Lyrics, Sermons
   
Contact Higher Praise
   
Advertising 
   Privacy Policy
//
He Died For You,  Click For Answer! This Is Who Jesus Is Video

'
 
0-9 A B C D E F G H I J K L M N O P Q R S T U V W X Y Z
.

//
Click For Printable...Version Of This File
 

Man In The Mirror


by Mymp

Share |



===============================================================================
                     Man in the Mirror (acoustic) - MYMP
-------------------------------------------------------------------------------



legends:
  m -> palm mute
  p -> pull-off
  h -> hammer-on

This is MYMP's beautiful rendition of Michael Jackson's Man in the Mirror.
I just got lucky that the ASAP rerun during Pacquiao-Hatton fight was the one
where MYMP performed this. I only recorded it using my MP3 player, thus the
crappy sounds. Some notes can't be heard so this tab may not be that accurate.
You can listen to the song here-



The song started so soon that I haven't got the chance to record the INTRO.
But if my memory is right, it's just the same as the VERSES.


VERSE I

     3x0230      2x0231          0x0231            D
     1 * * * 2 * * * 3 * * * 4 * * *   1 * * * 2 * * * 3 * * * 4 * * *
  e
-3-----------2---------------0---
---------------------------------

  B
---------t-----------------------
---------t-----------------------

  G
---------a-----------------------
---------a---0-------------------

  D
-----2m--p-----------2-------2---
-----0---p---2-------------------

  A
-----3m--------------3-------3---
-----3-------3-------------------

  E
-------------------------1---1---
---------------------2---3-------

         I'm gonna make a change                   for once in my

     x30030                            x30033
     1 * * * 2 * * * 3 * * * 4 * * *   1 * * * 2 * * * 3 * * * 4 * * *
  e
---------------------------------
---------------------------------

  B
-3-------------------------------
-3-------------------------------

  G
---------------------------------
---------------------------------

  D
-0-------0-----------------------
---------0-----------------------

  A
-3-----------3-------------------
-------------3-------------------

  E
-0-----------0-------------------
-------------3-------------------

         life                                                It will feel

     3x0230      2x0230                0x0230      xx0030
     1 * * * 2 * * * 3 * * * 4 * * *   1 * * * 2 * * * 3 * * * 4 * * *
  e
-3-----------2-------------------
-0-------------------------------

  B
---------t-----------------------
---------t-----------------------

  G
---------a-----------------------
---------a---0-------0-----------

  D
-----2m--p---2-----------2-------
-----0---p---0-----------0-------

  A
-----3m------3-----------3-------
-----3-------3-----------3-------

  E
-----------------------------0---
---------------------------------

         real   good      gonna make a difference gonna make it right

     x30030                            x30033
     1 * * * 2 * * * 3 * * * 4 * * *   1 * * * 2 * * * 3 * * * 4 * * *
  e
---------------------------------
---------------------------------

  B
-3-------------------------------
---------------------------------

  G
---------------------------------
---------------------------------

  D
-0-------0-----------------------
-0---0---0-----------------------

  A
-3-----------3-----------3-------
-------------3-------------------

  E
-0-----------0-------------------
---------3-----------------------

                                                               As I


VERSE II

     3x0230      2x0030          0x0030            xx0030
     1 * * * 2 * * * 3 * * * 4 * * *   1 * * * 2 * * * 3 * * * 4 * * *
  e
-3-----------2---------------0---
---------------------------------

  B
---------t-----------------------
---------t-----------------------

  G
---------a-----------------------
---------a---0-------------------

  D
-0---2m--p---0-------2m--0-------
-0---2m--p---0-----------0-------

  A
-0---3m------3-------3m--3-------
-----3m------3-------3-----------

  E
---------------------------------
-----------------0---------------

        turn up the col-lar on        my favorite winter coat

     x30033                            x30033
     1 * * * 2 * * * 3 * * * 4 * * *   1 * * * 2 * * * 3 * * * 4 * * *
  e
---------------------------------
---------------------------------

  B
-3-------------------------------
-3-------------------------------

  G
---------------------------------
---------------------------------

  D
-----0---------------------------
-----0-------------------0-------

  A
---------3---3---------------3---
---------3---3---------------3---

  E
---------3---------------0-------
---------3-----------------------

        this wind is blowin' my mind                       I see the kids

     3x0230      2x0030          0x0230            xx0033
     1 * * * 2 * * * 3 * * * 4 * * *   1 * * * 2 * * * 3 * * * 4 * * *
  e
-3-----------2---------------0---
---------------------------------

  B
---------t-----------------------
---------------------------------

  G
---------a-----------------------
-------------0-------------------

  D
-0---2m--p---0-------2m--0-------
-0---2-------0-------0-----------

  A
-0---3m------3-------3m--3-------
-----3-------3-----------3-------

  E
---------------------------------
-------------3-----------3-------

             in the street, with not enough to eat             Who am I

     x30033                            x30033
     1 * * * 2 * * * 3 * * * 4 * * *   1 * * * 2 * * * 3 * * * 4 * * *
  e
---------------------------------
---------------------------------

  B
-3-------------------------------
-3-------------------------------

  G
---------------------------------
---------------------------------

  D
-----0---------------0-----------
-----0---------------0-----------

  A
---------3---3-----------3---3---
---------3---3-----------3-------

  E
---------3---------------3-------
---------3---------------3-------

         to be blind pretending not to see their needs


REFRAIN

     Am7                     x20032                x20033
     1 * * * 2 * * * 3 * * * 4 * * *   1 * * * 2 * * * 3 * * * 4 * * *
  e
-0-----------0-------------------
---------------------------------

  B
---------t-----------------------
-2-------t---2-------------------

  G
---------a-----------------------
---------a-----------------------

  D
-----0---p---0-------------------
-----0---p---0-------0-------0---

  A
-----1-----------0h1p0---3-------
-----3-------3-----------3-------

  E
-----0-------------------3-------
-----2-------3-----------3-------

         A summer's disregard              a  broken   bottle top

     x30030                            x20023
     1 * * * 2 * * * 3 * * * 4 * * *   1 * * * 2 * * * 3 * * * 4 * * *
  e
---------------------------------
---------------------------------

  B
-3-------------------------------
-2-------t---------------t-------

  G
---------------------------------
---------a---------------a-------

  D
-----0-----------0---------------
-----2---p---2-------2---p-------

  A
---------3-----------3-----------
-----3-------3-------------------

  E
---------0-----------3-----------
---------------------------------

             And a one man's    soul                              They

     Am7                               x20230
     1 * * * 2 * * * 3 * * * 4 * * *   1 * * * 2 * * * 3 * * * 4 * * *
  e
-0-----------0-----------0-------
---------------------------------

  B
---------t-----------------------
-2-------t---2-------------------

  G
---------a-----------------------
---------a-----------------------

  D
-----0---p-------0-----------0---
-----2---p---2-------2-------2---

  A
-----1-----------1-----------1---
-----3-------3-------3---3-------

  E
-----0-----------0-----------0---
---------------------------------

     follow each o-ther on  the wind  ya' know            'Cause they got

     x30230      x30030                D7sus2
     1 * * * 2 * * * 3 * * * 4 * * *   1 * * * 2 * * * 3 * * * 4 * * *
  e
---------------------------------
---------------------------------

  B
-3-------t---3-----------t-------
-----s---------------------------

  G
---------a---------------a-------
-0-----t-------------------------

  D
-2---0---p---0-------0---p-------
-2-------r-----------------------

  A
-3---3-------3-------3-----------
-1---------u---------------------

  E
-------------0-------------------
-0-----------m-------------------

             nowhere         to go         That's why I want you to know


CHORUS I

     300230      x20030                x30230          D7sus2      300033
     1 * * * 2 * * * 3 * * * 4 * * *   1 * * * 2 * * * 3 * * * 4 * * *
  e
-3-------------------------------
---------------------------------

  B
---------t---2-----------t-------
-3-------t-------5---5-----------

  G
---------a---------------a-------
---------a-----------------------

  D
-----2m--p---0-------0---p-------
-----2---p-------5---5-----------

  A
-----3m------3-------3-----------
-----3-----------5---5-------3---

  E
---------------------------------
-----------------5---5-------3---

             I'm   starting with the  man      in  the mirror

                     x20030            x30230          D7sus2
     1 * * * 2 * * * 3 * * * 4 * * *   1 * * * 2 * * * 3 * * * 4 * * *
  e
-3-------------------------------
---------------------------------

  B
---------t-------2-------t-------
-3-------t-------5---5---5-------

  G
---------a---------------a-------
---------a-----------------------

  D
-----0---p-----------0---p-------
-----2---p-------5---5---5-------

  A
-----3---------------3-----------
-----3-----------5---5---5-------

  E
---------------------------------
-----------------5---5---5-------

             I'm     asking him  to  change   his ways

     300230      x20030                x30230          x4x005  x4x003
     1 * * * 2 * * * 3 * * * 4 * * *   1 * * * 2 * * * 3 * * * 4 * * *
  e
-3-------------------------------
---------------------------------

  B
---------t---2-----------t-------
-3-------t-------4---------------

  G
---------a---------------a-------
---------a-----------------------

  D
-----2m--p---0-------0---p-------
-----0---p-----------0-----------

  A
-----3m------3-------3-----------
-----3---------------0-----------

  E
---------------------------------
---------------------5---3-------

         And no      message  could have been  a-   ny clearer

  Dm7 (strum)
  If you wanna make the world a better place
                                          
  Take a look at yourself, then make that


*CAPO ON 1ST FRET - I saw chin using a capo. I think he just added it
  here to raise the tone one fret higher.

CHORUS II

  320033       x22033          x32033            D7sus2
  change  I'm starting with the      man in the mirror,
  320033      x22033        x32033       D7sus2
         I'm asking him to change his ways
  320033       x22033            x32033     A/#C
       And no message could have been any clearer
  D7sus2
  If you wanna make the world a better place

  Take a look at yourself, and then make a change

  You gotta get it right, while you got the time
  (ang gulo ng lyrics dito)

  320033       x22033          x32033            D7sus2
         I'm starting with the      man in the mirror,
  320033      x22033        x32033       D7sus2
         I'm asking him to change his ways
  320033       x22033            x32033     A/#C
       And no message could have been any clearer
  D7sus2
  If you wanna make the world a better place
                                              320033
  Take a look at yourself, and then make that change

  22033 020033      xx0033 x32033       320033
           nanana nanana nananananana

===============================================================================
 


/
How To Set Up Higher Praise As Your Home Page
Copyright 1999, Higher Praise HigherPraise,Inc. All rights reserved. Terms of Use

Enjoy A Life Changing Experience

 
 
 
HigherPraise, Higher Praise, HigherPraise, Higher Praise, HigherPraise

Members..Sign Up. LogIn

 
 

Higher Praise Other Sites
 
 

HigherPraise.org/
Praise And Worship
www.higherpraise.org

HigherPraise.net
Christian Resources
www.higherpraise.net

HigherPraiseTube.com
Videos And Audios
www.higherpraisetube.com.


ChristianLyrics.org

Lyrics And Chrords
www.christianlyrics.org

ChristianChordsLyrics

Lyrics And Chrords
www.christianchordslyrics.com

ChristianChordLyrics

Lyrics And Chrords
www.christianchordlyrics.com

WorshipLyrics.org
10.000 Illustrations
www.worshiplyrics.org

WorshipLyrics.net
10.000 Illustrations
www.worshiplyrics.net

PraiseLyrics.com
PowerPoint Lyrics

www.praiselyrics.com

PraiseLyrics.org
PowerPoint Lyrics

www.praiselyrics.org

1GodTube.com
Chistian Videos

www1godtube..com

OneGodTube.com
Chistian Videos

www.onegodtube..com

 

/
Copyright 1999 - 2019, Higher Praise™ HigherPraise™,Inc. All rights reserved. Terms of Use