Kailan Tabs by Mymp

Higher Praise - Guitar Chords, Lyrics  GuitarTabs -  Praise nad Worship Music And Christian Songs

Higher Praise - Guitar Tabs, Guitar Chords, Lyrics
   Lyrics, Chords And Tabs
   Popular Lyrics Chords Tab
   Power Point Lyrics
   Praise & Worship Music
   Christian Music Videos
   15900 Videos & Audios
   Midi Files
   Worship Questions
   Christmas Chords, Lyrics
   Lyrics, Chords Tabs Rated

Sermon Outlines And Audio Sermons
   9344 Sermon Outlines
   N.T. Sermon Outlines
   O.T. Sermon Outlines
   Special Guest Outlines
   10.000 Illustrations
   Sunday School Studies
   Bible College Studies
   Greatest Preachers
   Bible Research Tools
Audio Sermons
   2895 Audio Sermons
   85 Sermon Videos
   291 Special Guests Serm

   Complete Audio Bible
Higher Praise Sunday School Teaching
   Children's NT Studies
   Children's OT Studies

   98 Children's Midis
   Gospel For Kids Movie
   Children's JESUS Film
Higher Praise Christian Video Library ,Videos
   Christian Television
   TBN TV Live
   15,000 Videos - HP Tube
   712 Youth Music Vids
  Christian Video Library
   Praise Videos #1 & #2
   85 Sermon Videos
   Prophecy Film -Videos
   JESUS Film -Video
   Childrens JESUS Film
   Gospel For Kids Movie
   Passion Of The Christ
   Noah, Sodom, Sinai, Ark
   Tsunami Videos Photos
News And Information
   Testimonies
   Submit Lyrics, Tabs, Serm
   10.000 Illustrations
   Bible College Course
   Clipart & Web Graphics
   Greatest Preachers
   Complete Talking Bible
   Christian Chat Rooms
   Links Church Resource
   HP Statement Of Faith
Download Clipart
   Audio Sermons
   Clipart & Web Graphics
   Church Administration
   Bible Study Software
   Screen Savers Software
   Verse A Day Software
   Educational Games
   Trade Center Photos

   Soft. Search Engine
Higher Praise News
   Current News
    Archived News
   Submit News
   Newsletter   Higher Praise Interact Prayer
   Prayer For All Needs
   
Submit Lyrics, Sermons
   
Contact Higher Praise
   
Advertising 
   Privacy Policy
//
He Died For You,  Click For Answer! This Is Who Jesus Is Video

'
 
0-9 A B C D E F G H I J K L M N O P Q R S T U V W X Y Z
.

//
Click For Printable...Version Of This File
 

Kailan


by Mymp

Share |



March 15, 2005         updated on: March 17, 2005
10:48 pm                           08:15 pm       

Title: Kailan
Artist: MYMP
Album:Beyond Acoustic
Year: 2005
Track No.: 3


Tuning: Standard



NOTICE: Hey guys ang gals, this is the Tab for MYMP's Kailan.. This is one good song
	so i decided to make the tab.. Medyo magulo yung tab pero kung 
	tiyagaan niyo, makukuha niyo.. this tab is 97-98% correct.. ang galing kasi ni
CHIN (guitarist ng MYMP).. Pinahirapan niya ako.. hehe 
	Sa ibang tao, maaring maging masyadong mababa yung tono nung kanta sa tab na ito pero problema na nila
	yun kasi maaring sintrunado yung gitara nila.. hehe anyways thanks guys... HAVE FUN! ;o)




Intro: (Before You start playing, pls. read the notice above)
      
      D#m?              C#            Bbm          D#m        C#          BM7
                                                       ^        ^
e
-------------
--------------
---1------1----
----------
----------
-----------2----

B
--7-----7----
---6-----6----
---2----2------
-------7--
------6---
---------4-4----

G
------8---8--
-------6---6--
---3-----------
-------8--
------6---
-------3---3----

D
----8--------
-----6--------
---3--3--------
----8-----
----6-----
-----4----------

A
-------------
---4----------
---------------
--6-------
--4-------
---2------------

E
--7----------
--------------
---------------
----------
----------
----------------


       F          D#?      Bb7     B      

e
-------1----
---------
---1---
--2------------------------------------------------

B
-----1---1--
--6-6----
---3---
--4------------------------------------------------

G
------------
--8---8--
---1---
--4------------------------------------------------

D
------------
--8------
---3---
--4------------------------------------------------

A
------------
---------
---1---
--2------------------------------------------------

E
--1---------
---------
-------
---------------------------------------------------



Verse 1:

      F#            Bm           F#/BM7         F#       D#m      D#m       C#                           
                                        ^                                       ^
e
----------1--
--------1----
----------2--
--2-----2-
------------------
---------

B
-------------
--2---2---2--
-------4--4--
--2---2---
-------7-------7--
-----6---

G
-------3-----
-------------
-----3----3--
--3-3-----
-----8-------8----
-----6---

D
-----4-------
-------------
---4---------
--4-------
---8-------8------
---6-----

A
---4---------
--2----------
-------------
--4-------
-6-------6--------
-4-------

E
-2-----------
-------------
-2-----------
--2-------
------------------
---------


           B              G#m       G#m      G#m       G#m  
                      
e
---------------4--
---------------------------------------------

B
----------4--4----
---------4---------4---------4---------4-----

G
--------4---------
-----------4---------4---------4---------4---

D
------4-----------
------6----------6---------6---------6-------

A
----2-------------
----6----------6---------6---------6---------

E
------------------
--4----------4---------4---------4-----------


      C#           C#        F#              B?               
                     ^
e
--4-----4----------4-
-2---------
-2----2-------2------

B
--6-------6--------6-
-2---2-2---
-2--2---2---2---2----

G
--6--6-----------6---
-3-3-----3-
-4--------4-4--------

D
--6------------6-----
-4---------
-4----------4--------

A
--4----------4-------
-4---------
-2-------------------

E
---------------------
-2---------
-2-------------------




Refrain:

        B              C#         Bbm         D#m     C#         BM7
                                                 ^       ^             ^
e
--------------
-------------
-----------
--------
-------
----------------

B
--------4-4---
---------6---
-------6---
------7-
-----6-
---------4-4----

G
------4-----4-
-------6---6-
---------6-
------8-
-----6-
-------3---3----

D
----4---------
-----6-------
----8------
----8---
---6---
-----4-----4----

A
--2-----------
-2-4---------
--8--------
--6-----
-4-----
-0-2------------

E
--------------
-------------
6----------
--------
-------
----------------


        F         D#?    Bb

e
------1----
---------
--6-----

B
----1---1--
---6-6---
--6-----

G
-----------
---8---8-
--7-----

D
-----------
---8-----
--8-----

A
-----------
---------
--8-----

E
--1--------
---------
--6-----




Verse 2:

       F#            Bm           F#/BM7         F#       D#m      D#m       C#                           
                                                                               ^
e
----------1--
--1-----1----
----------2--
--2----2--
------------------
-------------

B
-------------
--2---2---2--
-------4-----
--2--2----
-------7-------7--
-----6-------

G
-------3-----
--3-3--------
-----3-------
--3-------
-----8-------8----
-----6-------

D
-----4-------
-------------
---4---------
--4-------
---8-------8------
---6---------

A
---4---------
-------------
-------------
--4-------
-6-------6--------
-4-----------

E
-2-----------
-------------
-2-----------
--2-------
------------------
-------------


          B                              G#m       G#m      G#m       G#m  
                                 ^
e
-------------------------------2-
--------------------------------------------------

B
----------4---4---------4---4--4-
-------4---------4---------4---------4------------

G
--------4---4---4-----4---4----4-
---------4---------4---------4---------4----------

D
------4-------------4------------
-----6----------6---------6---------6-------------

A
----2-------------2--------------
---6----------6---------6---------6---------------

E
---------------------------------
-4----------4---------4---------4-----------------


     C#           C#        F#              B?               
                     ^
e
--4-----4----------4-
-2---------
-2----2-------2------

B
--6-------6--------6-
-2---2-2---
-2--2---2---2---2----

G
--6--6-----------6---
-3-3-----3-
-4--------4-4--------

D
--6------------6-----
-4---------
-4----------4--------

A
--4----------4-------
-4---------
-2-------------------

E
---------------------
-2---------
-2-------------------




Refrain:

        B              C#         Bbm         D#m     C#         BM7
                                                 ^       ^             ^
e
--------------
-------------
-----------
--------
-------
-------------------------

B
--------4-4---
---------6---
-------6---
------7-
-----6-
---------4-4-------------

G
------4-----4-
-------6---6-
---------6-
------8-
-----6-
-------3---3-------------

D
----4---------
-----6-------
----8------
----8---
---6---
-----4-----4-------------

A
--2-----------
-2-4---------
--8--------
--6-----
-4-----
-0-2---------------------

E
--------------
-------------
6----------
--------
-------
-------------------------


       F         D#?    Bb

e
------1----
---------
--6-----

B
----1---1--
---6-6---
--6-----

G
-----------
---8---8-
--7-----

D
-----------
---8-----
--8-----

A
-----------
---------
--8-----

E
--1--------
---------
--6-----





Chorus:

         D#m           G#m            C#             F#         B    C#   Bbm       D#m      C#             Bb7        
              ^               ^                                                                ^
e
---------------
------------4---
--4--4----
-----2------2-
--2--
-4--
---6--
-6--------
-------
-----------1----1---1----

B
------------7--
----------4-4-4-
--6-------
-----2------2-
--4--
-6--
---6--
-7------7-
----6--
-------3-----3--3-----3--

G
------8-----8--
--------4-------
--6----6--
-----3------3-
--4--
-6--
---6--
-8--------
----6--
-----1---1------1--------

D
----8-----8----
----------------
--6-------
--------------
--4--
-6--
---8--
-8----8---
--6----
---3------------3--------

A
--6-----6------
-6--------------
--4-------
--------------
--2--
-4--
---8--
-6--6-----
4------
-1--------------1--------

E
---------------
-----4----------
----------
--2----2--2---
-----
----
---6--
----------
-------
-------------------------





         D#m          G#m             C#             F#         B   C#   Bbm     D#m       C#          F#          
              ^               ^                                                             ^
e
--------------
-------------4---
--4--4----
-----2------2-
--2---4-----6--
-6--------
-------
------------2-------------

B
------------7-
-----------4-4-4-
--6-------
-----2------2-
--4---6-----6--
-7------7-
----6--
----------2---------------

G
------8-----8-
---------4-------
--6----6--
-----3------3-
--4---6-----6--
-8--------
----6--
--------3-----------------

D
----8-----8---
-----------------
--6-------
--------------
--4---6-----8--
-8----8---
--6----
------4-------------------

A
--6-----6-----
--6--------------
--4-------
--------------
--2---4-----8--
-6--6-----
4------
----4---------------------

E
--------------
------4----------
----------
--2----2--2---
------------6--
----------
-------
--2-----------------------




Adlib:

e
---------------2--4/6--6--4--2---4/6--4--2---4/6----------------------2---2----------------2--4--6--9/11----------

B
---------2--3--2--4/7--7--4--2---4/7--4--2---4/7-------------2/3-2--2---2---2---------2-3--2--4--7--9/11--11--7---

G
-1/3--3--3--4------------------------------------------------3/4-3--------------1-1/3-3-4-------------------------

D
------4-------------------------------------------8-8--6--4-------------------------------------------------------

A
------------------------------------------------------------------------------------------------------------------

E
------------------------------------------------------------------------------------------------------------------




e
-------------------------------2/4--2---

B
---------------------------2-4-2/4--2---

G
---6h8--6--------------3-4--------------

D
----------6--4-4---4-4------------------

A
----------------------------------------

E
----------------------------------------




Verse 3:



       G#m       G#m      G#m       G#m  
                      
e
-----------------------------------------------------------------

B
---------4---------4---------4---------4-------------------------

G
-----------4---------4---------4---------4-----------------------

D
------6----------6---------6---------6---------------------------

A
----6----------6---------6---------6-----------------------------

E
--4----------4---------4---------4-------------------------------




     C#           C#        F#         
                     ^
e
--4-----4----------4-
-2------------

B
--6-------6--------6-
-2---2-2------

G
--6--6-----------6---
-3-3-----3----

D
--6------------6-----
-4------------

A
--4----------4-------
-4------------

E
---------------------
-2------------



Refrain:



        B              C#         Bbm         D#m     C#         BM7
                                                 ^       ^             ^
e
--------------
-------------
-----------
--------
-------
-------------------------

B
--------4-4---
---------6---
-------6---
------7-
-----6-
---------4-4-------------

G
------4-----4-
-------6---6-
---------6-
------8-
-----6-
-------3---3-------------

D
----4---------
-----6-------
----8------
----8---
---6---
-----4-----4-------------

A
--2-----------
-2-4---------
--8--------
--6-----
-4-----
-0-2---------------------

E
--------------
-------------
6----------
--------
-------
-------------------------


        F         D#?    Bb

e
------1----
---------
--6-----

B
----1---1--
---6-6---
--6-----

G
-----------
---8---8-
--7-----

D
-----------
---8-----
--8-----

A
-----------
---------
--8-----

E
--1--------
---------
--6-----




Chorus 2:



         D#m                   G#m           C#            F#      B    C#    Bbm       D#m      C#             Bb7        
              ^                      ^                                                             ^
e
----------------------
------------4---
--4--4----
-----2---2-
--2--
-4--
---6--
-6-
-------
-------
-----------1----1---1----

B
------------7---------
----------4-4-4-
--6-------
-----2---2-
--4--
-6--
---6--
-7-
-----7-
----6--
-------3-----3--3-----3--

G
------8-----8--6--3--4
--------4-------
--6----6--
-----3---3-
--4--
-6--
---6--
-8-
-------
----6--
-----1---1------1--------

D
----8-----8-----------
----------------
--6-------
-----------
--4--
-6--
---8--
-8-
---8---
--6----
---3------------3--------

A
--6-----6-------------
-6--------------
--4-------
-----------
--2--
-4--
---8--
-6-
-6-----
4------
-1--------------1--------

E
----------------------
-----4----------
----------
--2----2---
-----
----
---6--
---
-------
-------
-------------------------


         D#m                  G#m           C#           F#      B   C#     Bbm     D#m       C#          F#          
              ^                                                                                 ^
e
----------------------
--------------
--4--4----
-----2---2-
--2-
--4--
---6--
-6--------
-------
------------2-------------

B
------------7---------
-----------4--
--6-------
-----2---2-
--4-
--6--
---6--
-7------7-
----6--
----------2---------------

G
------8-----8--6--3--4
---------4----
--6----6--
-----3---3-
--4-
--6--
---6--
-8--------
----6--
--------3-----------------

D
----8-----8-----------
--------------
--6-------
-----------
--4-
--6--
---8--
-8----8---
--6----
------4-------------------

A
--6-----6-------------
--6-----------
--4-------
-----------
--2-
--4--
---8--
-6--6-----
4------
----4---------------------

E
----------------------
------4-------
----------
--2----2---
----
-----
---6--
----------
-------
--2-----------------------




    B   C#   Bbm     D#m       C#            
                                                              
e
--2---4-----6--
-6--------
-------

B
--4---6-----6--
-7------7-
----6--

G
--4---6-----6--
-8--------
----6--

D
--4---6-----8--
-8----8---
--6----

A
--2---4-----8--
-6--6-----
4------

E
------------6--
----------
-------




				-= E         N          D=-


LYRICS:

Verse 1:


Bakit kaya nangangamba
Sa tuwing ika'y nakikita
Sana nama'y magpakilala


Ilang ulit nang nagkabangga
Aklat kong dala'y pinulot mo pa
Di ka pa rin nagpakilala

Refrain:


Bawat araw sinusundan
Di ka pa rin tumitingin
Anong aking dapat gawin

Verse 2:


Bakit kaya umiiwas
Binti ko ba'y mayroong gasgas
Nais ko nang magpakilala


Dito'y meron sa puso ko
Munting puwang laan sayo
Maaari na ba'ng magpakilala


(repeat refrain)

Chorus:

Kailan, kailan mo ba mapapansin
Ang aking lihim
Kahit anong aking gawin
di mo pinapansin


Kailan, kailan hahaplusin ang pusong
bitin na bitin
Kahit anong gawing lambing
Di mo pa rin pansin

(Adlib)

(repeat 2nd part of verse 2)

(repeat refrain)

(repeat chorus)


Kahit anong aking gawin
Di mo pinapansin...


LEGEND:

h = hammer
^ = upstroke




_______________________________________________________________________________________
***************************************************************************************
Hi sa mga students ng II-Molave of Bicol University batch 2004-05!! Mga kaklase,, hehe
Summer na... hi to: DAYON,DENNIS,REUBEN,KIMBERJOHN,ANTON,XYRUZ,JOEFFREI, at ang
pambansang bading si DEODEL hehe (joke lang) Si JOEY ang tunay na bading...
may dwende sa kanyang nunal!! hahaha                                                                 
I would like to dedicate my efforts to Janina S. Alejo... hehe        _ _
                       					             ( V )
   								      "V"		
_______________________________________________________________________________________
***************************************************************************************


Any Comments and/or suggestions, just e-mail me:

 


/
How To Set Up Higher Praise As Your Home Page
Copyright 1999, Higher Praise HigherPraise,Inc. All rights reserved. Terms of Use

Enjoy A Life Changing Experience

 
 
 
HigherPraise, Higher Praise, HigherPraise, Higher Praise, HigherPraise

Members..Sign Up. LogIn

 
 

Higher Praise Other Sites
 
 

HigherPraise.org/
Praise And Worship
www.higherpraise.org

HigherPraise.net
Christian Resources
www.higherpraise.net

HigherPraiseTube.com
Videos And Audios
www.higherpraisetube.com.


ChristianLyrics.org

Lyrics And Chrords
www.christianlyrics.org

ChristianChordsLyrics

Lyrics And Chrords
www.christianchordslyrics.com

ChristianChordLyrics

Lyrics And Chrords
www.christianchordlyrics.com

WorshipLyrics.org
10.000 Illustrations
www.worshiplyrics.org

WorshipLyrics.net
10.000 Illustrations
www.worshiplyrics.net

PraiseLyrics.com
PowerPoint Lyrics

www.praiselyrics.com

PraiseLyrics.org
PowerPoint Lyrics

www.praiselyrics.org

1GodTube.com
Chistian Videos

www1godtube..com

OneGodTube.com
Chistian Videos

www.onegodtube..com

 

/
Copyright 1999 - 2019, Higher Praise™ HigherPraise™,Inc. All rights reserved. Terms of Use